  0
SECTION
  2
HEADER
  9
$ACADVER
  1
AC1018
  9
$ACADMAINTVER
 70
     0
  9
$DWGCODEPAGE
  3
ANSI_1252
  9
$INSBASE
 10
0.0
 20
0.0
 30
0.0
  9
$EXTMIN
 10
-40.078
 20
-24.8278
 30
0.0
  9
$EXTMAX
 10
6.4753
 20
65.1172
 30
0.0
  9
$LIMMIN
 10
0.0
 20
0.0
  9
$LIMMAX
 10
12.0
 20
9.0
  9
$ORTHOMODE
 70
     0
  9
$REGENMODE
 70
     1
  9
$FILLMODE
 70
     1
  9
$QTEXTMODE
 70
     0
  9
$MIRRTEXT
 70
     1
  9
$LTSCALE
 40
1.0
  9
$ATTMODE
 70
     1
  9
$TEXTSIZE
 40
0.2
  9
$TRACEWID
 40
0.05
  9
$TEXTSTYLE
  7
Standard
  9
$CLAYER
  8
0
  9
$CELTYPE
  6
ByLayer
  9
$CECOLOR
 62
   256
  9
$CELTSCALE
 40
1.0
  9
$DISPSILH
 70
     0
  9
$DIMSCALE
 40
1.0
  9
$DIMASZ
 40
0.18
  9
$DIMEXO
 40
0.0625
  9
$DIMDLI
 40
0.38
  9
$DIMRND
 40
0.0
  9
$DIMDLE
 40
0.0
  9
$DIMEXE
 40
0.18
  9
$DIMTP
 40
0.0
  9
$DIMTM
 40
0.0
  9
$DIMTXT
 40
0.18
  9
$DIMCEN
 40
0.09
  9
$DIMTSZ
 40
0.0
  9
$DIMTOL
 70
     0
  9
$DIMLIM
 70
     0
  9
$DIMTIH
 70
     1
  9
$DIMTOH
 70
     1
  9
$DIMSE1
 70
     0
  9
$DIMSE2
 70
     0
  9
$DIMTAD
 70
     0
  9
$DIMZIN
 70
     0
  9
$DIMBLK
  1

  9
$DIMASO
 70
     1
  9
$DIMSHO
 70
     1
  9
$DIMPOST
  1

  9
$DIMAPOST
  1

  9
$DIMALT
 70
     0
  9
$DIMALTD
 70
     2
  9
$DIMALTF
 40
25.4
  9
$DIMLFAC
 40
1.0
  9
$DIMTOFL
 70
     0
  9
$DIMTVP
 40
0.0
  9
$DIMTIX
 70
     0
  9
$DIMSOXD
 70
     0
  9
$DIMSAH
 70
     0
  9
$DIMBLK1
  1

  9
$DIMBLK2
  1

  9
$DIMSTYLE
  2
Standard
  9
$DIMCLRD
 70
     0
  9
$DIMCLRE
 70
     0
  9
$DIMCLRT
 70
     0
  9
$DIMTFAC
 40
1.0
  9
$DIMGAP
 40
0.09
  9
$DIMJUST
 70
     0
  9
$DIMSD1
 70
     0
  9
$DIMSD2
 70
     0
  9
$DIMTOLJ
 70
     1
  9
$DIMTZIN
 70
     0
  9
$DIMALTZ
 70
     0
  9
$DIMALTTZ
 70
     0
  9
$DIMUPT
 70
     0
  9
$DIMDEC
 70
     4
  9
$DIMTDEC
 70
     4
  9
$DIMALTU
 70
     2
  9
$DIMALTTD
 70
     2
  9
$DIMTXSTY
  7
Standard
  9
$DIMAUNIT
 70
     0
  9
$DIMADEC
 70
     0
  9
$DIMALTRND
 40
0.0
  9
$DIMAZIN
 70
     0
  9
$DIMDSEP
 70
    46
  9
$DIMATFIT
 70
     3
  9
$DIMFRAC
 70
     0
  9
$DIMLDRBLK
  1

  9
$DIMLUNIT
 70
     2
  9
$DIMLWD
 70
    -2
  9
$DIMLWE
 70
    -2
  9
$DIMTMOVE
 70
     0
  9
$LUNITS
 70
     2
  9
$LUPREC
 70
     4
  9
$SKETCHINC
 40
0.1
  9
$FILLETRAD
 40
0.5
  9
$AUNITS
 70
     0
  9
$AUPREC
 70
     0
  9
$MENU
  1
.
  9
$ELEVATION
 40
0.0
  9
$PELEVATION
 40
0.0
  9
$THICKNESS
 40
0.0
  9
$LIMCHECK
 70
     0
  9
$CHAMFERA
 40
0.5
  9
$CHAMFERB
 40
0.5
  9
$CHAMFERC
 40
1.0
  9
$CHAMFERD
 40
0.0
  9
$SKPOLY
 70
     0
  9
$TDCREATE
 40
2454775.269747373
  9
$TDUCREATE
 40
2454775.228080706
  9
$TDUPDATE
 40
2454775.269747384
  9
$TDUUPDATE
 40
2454775.228080717
  9
$TDINDWG
 40
0.0000000116
  9
$TDUSRTIMER
 40
0.0000000116
  9
$USRTIMER
 70
     1
  9
$ANGBASE
 50
0.0
  9
$ANGDIR
 70
     0
  9
$PDMODE
 70
     0
  9
$PDSIZE
 40
0.0
  9
$PLINEWID
 40
0.0
  9
$SPLFRAME
 70
     0
  9
$SPLINETYPE
 70
     6
  9
$SPLINESEGS
 70
     8
  9
$HANDSEED
  5
FE
  9
$SURFTAB1
 70
     6
  9
$SURFTAB2
 70
     6
  9
$SURFTYPE
 70
     6
  9
$SURFU
 70
     6
  9
$SURFV
 70
     6
  9
$UCSBASE
  2

  9
$UCSNAME
  2

  9
$UCSORG
 10
0.0
 20
0.0
 30
0.0
  9
$UCSXDIR
 10
1.0
 20
0.0
 30
0.0
  9
$UCSYDIR
 10
0.0
 20
1.0
 30
0.0
  9
$UCSORTHOREF
  2

  9
$UCSORTHOVIEW
 70
     0
  9
$UCSORGTOP
 10
0.0
 20
0.0
 30
0.0
  9
$UCSORGBOTTOM
 10
0.0
 20
0.0
 30
0.0
  9
$UCSORGLEFT
 10
0.0
 20
0.0
 30
0.0
  9
$UCSORGRIGHT
 10
0.0
 20
0.0
 30
0.0
  9
$UCSORGFRONT
 10
0.0
 20
0.0
 30
0.0
  9
$UCSORGBACK
 10
0.0
 20
0.0
 30
0.0
  9
$PUCSBASE
  2

  9
$PUCSNAME
  2

  9
$PUCSORG
 10
0.0
 20
0.0
 30
0.0
  9
$PUCSXDIR
 10
1.0
 20
0.0
 30
0.0
  9
$PUCSYDIR
 10
0.0
 20
1.0
 30
0.0
  9
$PUCSORTHOREF
  2

  9
$PUCSORTHOVIEW
 70
     0
  9
$PUCSORGTOP
 10
0.0
 20
0.0
 30
0.0
  9
$PUCSORGBOTTOM
 10
0.0
 20
0.0
 30
0.0
  9
$PUCSORGLEFT
 10
0.0
 20
0.0
 30
0.0
  9
$PUCSORGRIGHT
 10
0.0
 20
0.0
 30
0.0
  9
$PUCSORGFRONT
 10
0.0
 20
0.0
 30
0.0
  9
$PUCSORGBACK
 10
0.0
 20
0.0
 30
0.0
  9
$USERI1
 70
     0
  9
$USERI2
 70
     0
  9
$USERI3
 70
     0
  9
$USERI4
 70
     0
  9
$USERI5
 70
     0
  9
$USERR1
 40
0.0
  9
$USERR2
 40
0.0
  9
$USERR3
 40
0.0
  9
$USERR4
 40
0.0
  9
$USERR5
 40
0.0
  9
$WORLDVIEW
 70
     1
  9
$SHADEDGE
 70
     3
  9
$SHADEDIF
 70
    70
  9
$TILEMODE
 70
     1
  9
$MAXACTVP
 70
    64
  9
$PINSBASE
 10
0.0
 20
0.0
 30
0.0
  9
$PLIMCHECK
 70
     0
  9
$PEXTMIN
 10
1.000000000000000E+20
 20
1.000000000000000E+20
 30
1.000000000000000E+20
  9
$PEXTMAX
 10
-1.000000000000000E+20
 20
-1.000000000000000E+20
 30
-1.000000000000000E+20
  9
$PLIMMIN
 10
0.0
 20
0.0
  9
$PLIMMAX
 10
12.0
 20
9.0
  9
$UNITMODE
 70
     0
  9
$VISRETAIN
 70
     1
  9
$PLINEGEN
 70
     0
  9
$PSLTSCALE
 70
     1
  9
$TREEDEPTH
 70
  3020
  9
$CMLSTYLE
  2
Standard
  9
$CMLJUST
 70
     0
  9
$CMLSCALE
 40
1.0
  9
$PROXYGRAPHICS
 70
     1
  9
$MEASUREMENT
 70
     0
  9
$CELWEIGHT
370
    -1
  9
$ENDCAPS
280
     0
  9
$JOINSTYLE
280
     0
  9
$LWDISPLAY
290
     0
  9
$INSUNITS
 70
     4
  9
$HYPERLINKBASE
  1

  9
$STYLESHEET
  1

  9
$XEDIT
290
     1
  9
$CEPSNTYPE
380
     0
  9
$PSTYLEMODE
290
     0
  9
$FINGERPRINTGUID
  2
{FAEB1C30-E019-11D5-929B-00C0DF256EC4}
  9
$VERSIONGUID
  2
{FAEB1C32-E019-11D5-929B-00C0DF256EC4}
  9
$EXTNAMES
290
     1
  9
$PSVPSCALE
 40
0.0
  9
$OLESTARTUP
290
     0
  9
$SORTENTS
280
   127
  9
$INDEXCTL
280
     0
  9
$HIDETEXT
280
     1
  9
$XCLIPFRAME
290
     0
  9
$HALOGAP
280
     0
  9
$OBSCOLOR
 70
   257
  9
$OBSLTYPE
280
     0
  9
$INTERSECTIONDISPLAY
280
     0
  9
$INTERSECTIONCOLOR
 70
   257
  9
$DIMASSOC
280
     2
  9
$PROJECTNAME
  1

  0
ENDSEC
  0
SECTION
  2
CLASSES
  0
CLASS
  1
ACDBDICTIONARYWDFLT
  2
AcDbDictionaryWithDefault
  3
ObjectDBX Classes
 90
        0
 91
        1
280
     0
281
     0
  0
ENDSEC
  0
SECTION
  2
TABLES
  0
TABLE
  2
VPORT
  5
8
330
0
100
AcDbSymbolTable
 70
     2
  0
VPORT
  5
29
330
8
100
AcDbSymbolTableRecord
100
AcDbViewportTableRecord
  2
*Active
 70
     0
 10
0.0
 20
0.0
 11
1.0
 21
1.0
 12
10.42990654205607
 22
4.5
 13
0.0
 23
0.0
 14
0.5
 24
0.5
 15
0.5
 25
0.5
 16
0.0
 26
0.0
 36
1.0
 17
0.0
 27
0.0
 37
0.0
 40
9.0
 41
1.972972972850329
 42
50.0
 43
0.0
 44
0.0
 50
0.0
 51
0.0
 71
     0
 72
   100
 73
     1
 74
     3
 75
     0
 76
     0
 77
     0
 78
     0
281
     0
 65
     1
110
0.0
120
0.0
130
0.0
111
1.0
121
0.0
131
0.0
112
0.0
122
1.0
132
0.0
 79
     0
146
0.0
  0
ENDTAB
  0
TABLE
  2
LTYPE
  5
5
330
0
100
AcDbSymbolTable
 70
     2
  0
LTYPE
  5
14
330
5
100
AcDbSymbolTableRecord
100
AcDbLinetypeTableRecord
  2
ByBlock
 70
     0
  3

 72
    65
 73
     0
 40
0.0
  0
LTYPE
  5
15
330
5
100
AcDbSymbolTableRecord
100
AcDbLinetypeTableRecord
  2
ByLayer
 70
     0
  3

 72
    65
 73
     0
 40
0.0
  0
LTYPE
  5
16
330
5
100
AcDbSymbolTableRecord
100
AcDbLinetypeTableRecord
  2
Continuous
 70
     0
  3
Solid line
 72
    65
 73
     0
 40
0.0
  0
LTYPE
  5
FD
330
5
100
AcDbSymbolTableRecord
100
AcDbLinetypeTableRecord
  2
New Line1
 70
     0
  3

 72
    65
 73
     4
 40
20.2
 49
12.7
 74
     4
 75
     0
340
0
 46
1.0
 50
0.0
 44
0.0
 45
0.0
 49
-2.5
 74
     4
 75
     0
340
0
 46
1.0
 50
0.0
 44
0.0
 45
0.0
 49
2.5
 74
     4
 75
     0
340
0
 46
1.0
 50
0.0
 44
0.0
 45
0.0
 49
-2.5
 74
     4
 75
     0
340
0
 46
1.0
 50
0.0
 44
0.0
 45
0.0
  0
ENDTAB
  0
TABLE
  2
LAYER
  5
2
330
0
100
AcDbSymbolTable
 70
     2
  0
LAYER
  5
10
330
2
100
AcDbSymbolTableRecord
100
AcDbLayerTableRecord
  2
0
 70
     0
 62
     7
  6
Continuous
370
    -3
390
F
  0
LAYER
  5
2B
330
2
100
AcDbSymbolTableRecord
100
AcDbLayerTableRecord
  2
LC-012-007-KH--0
 70
     0
 62
     7
  6
Continuous
370
    -3
390
F
  0
ENDTAB
  0
TABLE
  2
STYLE
  5
3
330
0
100
AcDbSymbolTable
 70
     1
  0
STYLE
  5
11
330
3
100
AcDbSymbolTableRecord
100
AcDbTextStyleTableRecord
  2
Standard
 70
     0
 40
0.0
 41
1.0
 50
0.0
 71
     0
 42
0.2
  3
txt
  4

  0
ENDTAB
  0
TABLE
  2
VIEW
  5
6
330
0
100
AcDbSymbolTable
 70
     0
  0
ENDTAB
  0
TABLE
  2
UCS
  5
7
330
0
100
AcDbSymbolTable
 70
     0
  0
ENDTAB
  0
TABLE
  2
APPID
  5
9
330
0
100
AcDbSymbolTable
 70
     2
  0
APPID
  5
12
330
9
100
AcDbSymbolTableRecord
100
AcDbRegAppTableRecord
  2
ACAD
 70
     0
  0
APPID
  5
2A
330
9
100
AcDbSymbolTableRecord
100
AcDbRegAppTableRecord
  2
ODA
 70
     0
  0
ENDTAB
  0
TABLE
  2
DIMSTYLE
  5
A
330
0
100
AcDbSymbolTable
 70
     1
100
AcDbDimStyleTable
  0
DIMSTYLE
105
27
330
A
100
AcDbSymbolTableRecord
100
AcDbDimStyleTableRecord
  2
Standard
 70
     0
340
11
  0
ENDTAB
  0
TABLE
  2
BLOCK_RECORD
  5
1
330
0
100
AcDbSymbolTable
 70
     1
  0
BLOCK_RECORD
  5
1F
330
1
100
AcDbSymbolTableRecord
100
AcDbBlockTableRecord
  2
*Model_Space
340
22
  0
BLOCK_RECORD
  5
1B
330
1
100
AcDbSymbolTableRecord
100
AcDbBlockTableRecord
  2
*Paper_Space
340
1E
  0
BLOCK_RECORD
  5
23
330
1
100
AcDbSymbolTableRecord
100
AcDbBlockTableRecord
  2
*Paper_Space0
340
26
  0
ENDTAB
  0
ENDSEC
  0
SECTION
  2
BLOCKS
  0
BLOCK
  5
20
330
1F
100
AcDbEntity
  8
0
100
AcDbBlockBegin
  2
*Model_Space
 70
     0
 71
     0
 10
0.0
 20
0.0
 30
0.0
  3
*Model_Space
  1

  0
ENDBLK
  5
21
330
1F
100
AcDbEntity
  8
0
100
AcDbBlockEnd
  0
BLOCK
  5
1C
330
1B
100
AcDbEntity
 67
     1
  8
0
100
AcDbBlockBegin
  2
*Paper_Space
 70
     0
 71
     0
 10
0.0
 20
0.0
 30
0.0
  3
*Paper_Space
  1

  0
ENDBLK
  5
1D
330
1B
100
AcDbEntity
 67
     1
  8
0
100
AcDbBlockEnd
  0
BLOCK
  5
24
330
23
100
AcDbEntity
  8
0
100
AcDbBlockBegin
  2
*Paper_Space0
 70
     0
 71
     0
 10
0.0
 20
0.0
 30
0.0
  3
*Paper_Space0
  1

  0
ENDBLK
  5
25
330
23
100
AcDbEntity
  8
0
100
AcDbBlockEnd
  0
ENDSEC
  0
SECTION
  2
ENTITIES
  0
SPLINE
  5
2C
330
1F
100
AcDbEntity
  8
LC-012-007-KH--0
 62
   250
100
AcDbSpline
210
0.0
220
0.0
230
1.0
 70
    11
 71
     3
 72
    52
 73
    48
 74
     0
 42
0.0000000001
 43
0.0000000001
 40
0.0
 40
0.0
 40
0.0
 40
0.0
 40
0.0833333333333333
 40
0.0833333333333333
 40
0.0833333333333333
 40
0.0833333333333333
 40
0.1666666666666667
 40
0.1666666666666667
 40
0.1666666666666667
 40
0.1666666666666667
 40
0.25
 40
0.25
 40
0.25
 40
0.25
 40
0.3333333333333333
 40
0.3333333333333333
 40
0.3333333333333333
 40
0.3333333333333333
 40
0.4166666666666666
 40
0.4166666666666666
 40
0.4166666666666666
 40
0.4166666666666666
 40
0.4999999999999999
 40
0.4999999999999999
 40
0.4999999999999999
 40
0.4999999999999999
 40
0.5833333333333333
 40
0.5833333333333333
 40
0.5833333333333333
 40
0.5833333333333333
 40
0.6666666666666666
 40
0.6666666666666666
 40
0.6666666666666666
 40
0.6666666666666666
 40
0.75
 40
0.75
 40
0.75
 40
0.75
 40
0.8333333333333334
 40
0.8333333333333334
 40
0.8333333333333334
 40
0.8333333333333334
 40
0.9166666666666667
 40
0.9166666666666667
 40
0.9166666666666667
 40
0.9166666666666667
 40
1.0
 40
1.0
 40
1.0
 40
1.0
 10
-31.456
 20
-2.9173
 30
0.0
 10
-31.456
 20
-2.9173
 30
0.0
 10
-40.042
 20
-1.1262
 30
0.0
 10
-40.042
 20
-1.1262
 30
0.0
 10
-40.042
 20
-1.1262
 30
0.0
 10
-40.042
 20
-1.1262
 30
0.0
 10
-40.042
 20
1.4626
 30
0.0
 10
-40.042
 20
1.4626
 30
0.0
 10
-40.042
 20
1.4626
 30
0.0
 10
-40.042
 20
2.0843
 30
0.0
 10
-39.996
 20
2.5581
 30
0.0
 10
-39.90810000000001
 20
2.8859
 30
0.0
 10
-39.90810000000001
 20
2.8859
 30
0.0
 10
-39.78610000000001
 20
3.3537
 30
0.0
 10
-39.5702
 20
3.7535
 30
0.0
 10
-39.2604
 20
4.087400000000001
 30
0.0
 10
-39.2604
 20
4.087400000000001
 30
0.0
 10
-38.95050000000001
 20
4.4192
 30
0.0
 10
-38.5627
 20
4.6691
 30
0.0
 10
-38.09690000000001
 20
4.837000000000001
 30
0.0
 10
-38.09690000000001
 20
4.837000000000001
 30
0.0
 10
-37.6331
 20
5.003
 30
0.0
 10
-37.1114
 20
5.0869
 30
0.0
 10
-36.5336
 20
5.0869
 30
0.0
 10
-36.5336
 20
5.0869
 30
0.0
 10
-35.842
 20
5.0869
 30
0.0
 10
-35.2122
 20
4.983000000000001
 30
0.0
 10
-34.6445
 20
4.7751
 30
0.0
 10
-34.6445
 20
4.7751
 30
0.0
 10
-34.0768
 20
4.5652
 30
0.0
 10
-33.577
 20
4.2933
 30
0.0
 10
-33.1452
 20
3.9554
 30
0.0
 10
-33.1452
 20
3.9554
 30
0.0
 10
-32.7134
 20
3.6176
 30
0.0
 10
-32.3756
 20
3.2638
 30
0.0
 10
-32.1317
 20
2.8939
 30
0.0
 10
-32.1317
 20
2.8939
 30
0.0
 10
-31.8878
 20
2.5261
 30
0.0
 10
-31.7079
 20
2.0883
 30
0.0
 10
-31.5899
 20
1.5865
 30
0.0
 10
-31.5899
 20
1.5865
 30
0.0
 10
-31.5
 20
1.2027
 30
0.0
 10
-31.456
 20
0.7329
 30
0.0
 10
-31.456
 20
0.1732
 30
0.0
 10
-31.456
 20
0.1732
 30
0.0
 10
-31.456
 20
0.1732
 30
0.0
 10
-31.456
 20
-2.9173
 30
0.0
 10
-31.456
 20
-2.9173
 30
0.0
  0
SPLINE
  5
2D
330
1F
100
AcDbEntity
  8
LC-012-007-KH--0
 62
   250
100
AcDbSpline
210
0.0
220
0.0
230
1.0
 70
    11
 71
     3
 72
    48
 73
    44
 74
     0
 42
0.0000000001
 43
0.0000000001
 40
0.0
 40
0.0
 40
0.0
 40
0.0
 40
0.0909090909090909
 40
0.0909090909090909
 40
0.0909090909090909
 40
0.0909090909090909
 40
0.1818181818181818
 40
0.1818181818181818
 40
0.1818181818181818
 40
0.1818181818181818
 40
0.2727272727272727
 40
0.2727272727272727
 40
0.2727272727272727
 40
0.2727272727272727
 40
0.3636363636363637
 40
0.3636363636363637
 40
0.3636363636363637
 40
0.3636363636363637
 40
0.4545454545454546
 40
0.4545454545454546
 40
0.4545454545454546
 40
0.4545454545454546
 40
0.5454545454545455
 40
0.5454545454545455
 40
0.5454545454545455
 40
0.5454545454545455
 40
0.6363636363636365
 40
0.6363636363636365
 40
0.6363636363636365
 40
0.6363636363636365
 40
0.7272727272727274
 40
0.7272727272727274
 40
0.7272727272727274
 40
0.7272727272727274
 40
0.8181818181818183
 40
0.8181818181818183
 40
0.8181818181818183
 40
0.8181818181818183
 40
0.9090909090909093
 40
0.9090909090909093
 40
0.9090909090909093
 40
0.9090909090909093
 40
1.0
 40
1.0
 40
1.0
 40
1.0
 10
-32.4275
 20
-1.566
 30
0.0
 10
-32.4275
 20
-1.566
 30
0.0
 10
-32.4275
 20
-0.2066
 30
0.0
 10
-32.4275
 20
-0.2066
 30
0.0
 10
-32.4275
 20
-0.2066
 30
0.0
 10
-32.4275
 20
0.4071
 30
0.0
 10
-32.4855
 20
0.9508000000000001
 30
0.0
 10
-32.5975
 20
1.4266
 30
0.0
 10
-32.5975
 20
1.4266
 30
0.0
 10
-32.6674
 20
1.7245
 30
0.0
 10
-32.7714
 20
1.9784
 30
0.0
 10
-32.9093
 20
2.1883
 30
0.0
 10
-32.9093
 20
2.1883
 30
0.0
 10
-33.08320000000001
 20
2.4661
 30
0.0
 10
-33.3171
 20
2.718
 30
0.0
 10
-33.605
 20
2.9439
 30
0.0
 10
-33.605
 20
2.9439
 30
0.0
 10
-33.98880000000001
 20
3.2418
 30
0.0
 10
-34.42460000000001
 20
3.4777
 30
0.0
 10
-34.9144
 20
3.6556
 30
0.0
 10
-34.9144
 20
3.6556
 30
0.0
 10
-35.4042
 20
3.8335
 30
0.0
 10
-35.9619
 20
3.9215
 30
0.0
 10
-36.5856
 20
3.9215
 30
0.0
 10
-36.5856
 20
3.9215
 30
0.0
 10
-37.2813
 20
3.9215
 30
0.0
 10
-37.81500000000001
 20
3.8015
 30
0.0
 10
-38.1889
 20
3.5596
 30
0.0
 10
-38.1889
 20
3.5596
 30
0.0
 10
-38.5607
 20
3.3177
 30
0.0
 10
-38.8086
 20
3.0079
 30
0.0
 10
-38.9285
 20
2.6341
 30
0.0
 10
-38.9285
 20
2.6341
 30
0.0
 10
-39.0185
 20
2.3562
 30
0.0
 10
-39.0644
 20
1.9244
 30
0.0
 10
-39.0644
 20
1.3387
 30
0.0
 10
-39.0644
 20
1.3387
 30
0.0
 10
-39.0644
 20
1.3387
 30
0.0
 10
-39.0644
 20
-0.1766
 30
0.0
 10
-39.0644
 20
-0.1766
 30
0.0
 10
-39.0644
 20
-0.1766
 30
0.0
 10
-39.0644
 20
-0.1766
 30
0.0
 10
-32.4275
 20
-1.566
 30
0.0
 10
-32.4275
 20
-1.566
 30
0.0
  0
SPLINE
  5
2E
330
1F
100
AcDbEntity
  8
LC-012-007-KH--0
 62
   250
100
AcDbSpline
210
0.0
220
0.0
230
1.0
 70
    11
 71
     3
 72
    40
 73
    36
 74
     0
 42
0.0000000001
 43
0.0000000001
 40
0.0
 40
0.0
 40
0.0
 40
0.0
 40
0.1111111111111111
 40
0.1111111111111111
 40
0.1111111111111111
 40
0.1111111111111111
 40
0.2222222222222222
 40
0.2222222222222222
 40
0.2222222222222222
 40
0.2222222222222222
 40
0.3333333333333333
 40
0.3333333333333333
 40
0.3333333333333333
 40
0.3333333333333333
 40
0.4444444444444444
 40
0.4444444444444444
 40
0.4444444444444444
 40
0.4444444444444444
 40
0.5555555555555556
 40
0.5555555555555556
 40
0.5555555555555556
 40
0.5555555555555556
 40
0.6666666666666667
 40
0.6666666666666667
 40
0.6666666666666667
 40
0.6666666666666667
 40
0.7777777777777779
 40
0.7777777777777779
 40
0.7777777777777779
 40
0.7777777777777779
 40
0.8888888888888891
 40
0.8888888888888891
 40
0.8888888888888891
 40
0.8888888888888891
 40
1.0
 40
1.0
 40
1.0
 40
1.0
 10
-31.456
 20
16.7596
 30
0.0
 10
-31.456
 20
16.7596
 30
0.0
 10
-37.939
 20
18.1189
 30
0.0
 10
-37.939
 20
18.1189
 30
0.0
 10
-37.939
 20
18.1189
 30
0.0
 10
-37.4792
 20
17.5332
 30
0.0
 10
-37.1094
 20
16.7096
 30
0.0
 10
-36.8315
 20
15.6481
 30
0.0
 10
-36.8315
 20
15.6481
 30
0.0
 10
-36.8315
 20
15.6481
 30
0.0
 10
-37.793
 20
15.846
 30
0.0
 10
-37.793
 20
15.846
 30
0.0
 10
-37.793
 20
15.846
 30
0.0
 10
-38.0029
 20
16.3737
 30
0.0
 10
-38.2788
 20
16.8935
 30
0.0
 10
-38.6187
 20
17.4072
 30
0.0
 10
-38.6187
 20
17.4072
 30
0.0
 10
-38.9585
 20
17.921
 30
0.0
 10
-39.2544
 20
18.3068
 30
0.0
 10
-39.5082
 20
18.5647
 30
0.0
 10
-39.5082
 20
18.5647
 30
0.0
 10
-39.6642
 20
18.7206
 30
0.0
 10
-39.8541
 20
18.8686
 30
0.0
 10
-40.076
 20
19.0085
 30
0.0
 10
-40.076
 20
19.0085
 30
0.0
 10
-40.076
 20
19.0085
 30
0.0
 10
-40.076
 20
19.6242
 30
0.0
 10
-40.076
 20
19.6242
 30
0.0
 10
-40.076
 20
19.6242
 30
0.0
 10
-40.076
 20
19.6242
 30
0.0
 10
-31.456
 20
17.8271
 30
0.0
 10
-31.456
 20
17.8271
 30
0.0
 10
-31.456
 20
17.8271
 30
0.0
 10
-31.456
 20
17.8271
 30
0.0
 10
-31.456
 20
16.7596
 30
0.0
 10
-31.456
 20
16.7596
 30
0.0
  0
SPLINE
  5
2F
330
1F
100
AcDbEntity
  8
LC-012-007-KH--0
 62
   250
100
AcDbSpline
210
0.0
220
0.0
230
1.0
 70
    11
 71
     3
 72
   120
 73
   116
 74
     0
 42
0.0000000001
 43
0.0000000001
 40
0.0
 40
0.0
 40
0.0
 40
0.0
 40
0.0344827586206897
 40
0.0344827586206897
 40
0.0344827586206897
 40
0.0344827586206897
 40
0.0689655172413793
 40
0.0689655172413793
 40
0.0689655172413793
 40
0.0689655172413793
 40
0.103448275862069
 40
0.103448275862069
 40
0.103448275862069
 40
0.103448275862069
 40
0.1379310344827586
 40
0.1379310344827586
 40
0.1379310344827586
 40
0.1379310344827586
 40
0.1724137931034483
 40
0.1724137931034483
 40
0.1724137931034483
 40
0.1724137931034483
 40
0.206896551724138
 40
0.206896551724138
 40
0.206896551724138
 40
0.206896551724138
 40
0.2413793103448276
 40
0.2413793103448276
 40
0.2413793103448276
 40
0.2413793103448276
 40
0.2758620689655173
 40
0.2758620689655173
 40
0.2758620689655173
 40
0.2758620689655173
 40
0.310344827586207
 40
0.310344827586207
 40
0.310344827586207
 40
0.310344827586207
 40
0.3448275862068966
 40
0.3448275862068966
 40
0.3448275862068966
 40
0.3448275862068966
 40
0.3793103448275863
 40
0.3793103448275863
 40
0.3793103448275863
 40
0.3793103448275863
 40
0.413793103448276
 40
0.413793103448276
 40
0.413793103448276
 40
0.413793103448276
 40
0.4482758620689656
 40
0.4482758620689656
 40
0.4482758620689656
 40
0.4482758620689656
 40
0.4827586206896553
 40
0.4827586206896553
 40
0.4827586206896553
 40
0.4827586206896553
 40
0.517241379310345
 40
0.517241379310345
 40
0.517241379310345
 40
0.517241379310345
 40
0.5517241379310346
 40
0.5517241379310346
 40
0.5517241379310346
 40
0.5517241379310346
 40
0.5862068965517242
 40
0.5862068965517242
 40
0.5862068965517242
 40
0.5862068965517242
 40
0.6206896551724138
 40
0.6206896551724138
 40
0.6206896551724138
 40
0.6206896551724138
 40
0.6551724137931034
 40
0.6551724137931034
 40
0.6551724137931034
 40
0.6551724137931034
 40
0.689655172413793
 40
0.689655172413793
 40
0.689655172413793
 40
0.689655172413793
 40
0.7241379310344827
 40
0.7241379310344827
 40
0.7241379310344827
 40
0.7241379310344827
 40
0.7586206896551723
 40
0.7586206896551723
 40
0.7586206896551723
 40
0.7586206896551723
 40
0.7931034482758619
 40
0.7931034482758619
 40
0.7931034482758619
 40
0.7931034482758619
 40
0.8275862068965515
 40
0.8275862068965515
 40
0.8275862068965515
 40
0.8275862068965515
 40
0.8620689655172411
 40
0.8620689655172411
 40
0.8620689655172411
 40
0.8620689655172411
 40
0.8965517241379307
 40
0.8965517241379307
 40
0.8965517241379307
 40
0.8965517241379307
 40
0.9310344827586203
 40
0.9310344827586203
 40
0.9310344827586203
 40
0.9310344827586203
 40
0.9655172413793099
 40
0.9655172413793099
 40
0.9655172413793099
 40
0.9655172413793099
 40
1.0
 40
1.0
 40
1.0
 40
1.0
 10
-33.91090000000001
 20
21.3814
 30
0.0
 10
-33.91090000000001
 20
21.3814
 30
0.0
 10
-34.0148
 20
22.4589
 30
0.0
 10
-34.0148
 20
22.4589
 30
0.0
 10
-34.0148
 20
22.4589
 30
0.0
 10
-33.8629
 20
22.4509
 30
0.0
 10
-33.77090000000001
 20
22.4469
 30
0.0
 10
-33.7409
 20
22.4469
 30
0.0
 10
-33.7409
 20
22.4469
 30
0.0
 10
-33.4831
 20
22.4469
 30
0.0
 10
-33.2232
 20
22.5129
 30
0.0
 10
-32.9613
 20
22.6428
 30
0.0
 10
-32.9613
 20
22.6428
 30
0.0
 10
-32.6994
 20
22.7748
 30
0.0
 10
-32.49950000000001
 20
22.9527
 30
0.0
 10
-32.3616
 20
23.1766
 30
0.0
 10
-32.3616
 20
23.1766
 30
0.0
 10
-32.2216
 20
23.4005
 30
0.0
 10
-32.1537
 20
23.6384
 30
0.0
 10
-32.1537
 20
23.8882
 30
0.0
 10
-32.1537
 20
23.8882
 30
0.0
 10
-32.1537
 20
24.2161
 30
0.0
 10
-32.2656
 20
24.5499
 30
0.0
 10
-32.4935
 20
24.8898
 30
0.0
 10
-32.4935
 20
24.8898
 30
0.0
 10
-32.7194
 20
25.2296
 30
0.0
 10
-33.0493
 20
25.5035
 30
0.0
 10
-33.4831
 20
25.7154
 30
0.0
 10
-33.4831
 20
25.7154
 30
0.0
 10
-33.9149
 20
25.9253
 30
0.0
 10
-34.3447
 20
26.0312
 30
0.0
 10
-34.7705
 20
26.0312
 30
0.0
 10
-34.7705
 20
26.0312
 30
0.0
 10
-35.2502
 20
26.0312
 30
0.0
 10
-35.636
 20
25.8893
 30
0.0
 10
-35.9239
 20
25.6074
 30
0.0
 10
-35.9239
 20
25.6074
 30
0.0
 10
-36.2138
 20
25.3236
 30
0.0
 10
-36.3577
 20
24.9517
 30
0.0
 10
-36.3577
 20
24.492
 30
0.0
 10
-36.3577
 20
24.492
 30
0.0
 10
-36.3577
 20
24.1821
 30
0.0
 10
-36.2837
 20
23.8902
 30
0.0
 10
-36.1358
 20
23.6164
 30
0.0
 10
-36.1358
 20
23.6164
 30
0.0
 10
-35.9879
 20
23.3405
 30
0.0
 10
-35.764
 20
23.0846
 30
0.0
 10
-35.4681
 20
22.8447
 30
0.0
 10
-35.4681
 20
22.8447
 30
0.0
 10
-35.4681
 20
22.8447
 30
0.0
 10
-35.5321
 20
21.9192
 30
0.0
 10
-35.5321
 20
21.9192
 30
0.0
 10
-35.5321
 20
21.9192
 30
0.0
 10
-35.5321
 20
21.9192
 30
0.0
 10
-39.924
 20
23.2146
 30
0.0
 10
-39.924
 20
23.2146
 30
0.0
 10
-39.924
 20
23.2146
 30
0.0
 10
-39.924
 20
23.2146
 30
0.0
 10
-39.924
 20
27.4086
 30
0.0
 10
-39.924
 20
27.4086
 30
0.0
 10
-39.924
 20
27.4086
 30
0.0
 10
-39.924
 20
27.4086
 30
0.0
 10
-38.9525
 20
27.2027
 30
0.0
 10
-38.9525
 20
27.2027
 30
0.0
 10
-38.9525
 20
27.2027
 30
0.0
 10
-38.9525
 20
27.2027
 30
0.0
 10
-38.9525
 20
23.9402
 30
0.0
 10
-38.9525
 20
23.9402
 30
0.0
 10
-38.9525
 20
23.9402
 30
0.0
 10
-38.9525
 20
23.9402
 30
0.0
 10
-36.7675
 20
23.2965
 30
0.0
 10
-36.7675
 20
23.2965
 30
0.0
 10
-36.7675
 20
23.2965
 30
0.0
 10
-36.9434
 20
23.5384
 30
0.0
 10
-37.0754
 20
23.7883
 30
0.0
 10
-37.1633
 20
24.0422
 30
0.0
 10
-37.1633
 20
24.0422
 30
0.0
 10
-37.2513
 20
24.298
 30
0.0
 10
-37.29530000000001
 20
24.5619
 30
0.0
 10
-37.29530000000001
 20
24.8318
 30
0.0
 10
-37.29530000000001
 20
24.8318
 30
0.0
 10
-37.29530000000001
 20
25.4875
 30
0.0
 10
-37.0794
 20
26.0252
 30
0.0
 10
-36.6456
 20
26.447
 30
0.0
 10
-36.6456
 20
26.447
 30
0.0
 10
-36.2118
 20
26.8688
 30
0.0
 10
-35.6181
 20
27.0807
 30
0.0
 10
-34.8644
 20
27.0807
 30
0.0
 10
-34.8644
 20
27.0807
 30
0.0
 10
-34.2047
 20
27.0807
 30
0.0
 10
-33.597
 20
26.9348
 30
0.0
 10
-33.0393
 20
26.647
 30
0.0
 10
-33.0393
 20
26.647
 30
0.0
 10
-32.4835
 20
26.3571
 30
0.0
 10
-32.0557
 20
25.9593
 30
0.0
 10
-31.7579
 20
25.4555
 30
0.0
 10
-31.7579
 20
25.4555
 30
0.0
 10
-31.458
 20
24.9497
 30
0.0
 10
-31.3101
 20
24.404
 30
0.0
 10
-31.3101
 20
23.8183
 30
0.0
 10
-31.3101
 20
23.8183
 30
0.0
 10
-31.3101
 20
23.3265
 30
0.0
 10
-31.42
 20
22.8907
 30
0.0
 10
-31.6439
 20
22.5109
 30
0.0
 10
-31.6439
 20
22.5109
 30
0.0
 10
-31.8658
 20
22.1331
 30
0.0
 10
-32.1717
 20
21.8492
 30
0.0
 10
-32.56350000000001
 20
21.6593
 30
0.0
 10
-32.56350000000001
 20
21.6593
 30
0.0
 10
-32.9533
 20
21.4694
 30
0.0
 10
-33.3431
 20
21.3754
 30
0.0
 10
-33.7349
 20
21.3754
 30
0.0
 10
-33.7349
 20
21.3754
 30
0.0
 10
-33.7729
 20
21.3754
 30
0.0
 10
-33.8309
 20
21.3774
 30
0.0
 10
-33.91090000000001
 20
21.3814
 30
0.0
  0
SPLINE
  5
30
330
1F
100
AcDbEntity
  8
LC-012-007-KH--0
 62
   250
100
AcDbSpline
210
0.0
220
0.0
230
1.0
 70
    11
 71
     3
 72
    52
 73
    48
 74
     0
 42
0.0000000001
 43
0.0000000001
 40
0.0
 40
0.0
 40
0.0
 40
0.0
 40
0.0833333333333333
 40
0.0833333333333333
 40
0.0833333333333333
 40
0.0833333333333333
 40
0.1666666666666667
 40
0.1666666666666667
 40
0.1666666666666667
 40
0.1666666666666667
 40
0.25
 40
0.25
 40
0.25
 40
0.25
 40
0.3333333333333333
 40
0.3333333333333333
 40
0.3333333333333333
 40
0.3333333333333333
 40
0.4166666666666666
 40
0.4166666666666666
 40
0.4166666666666666
 40
0.4166666666666666
 40
0.4999999999999999
 40
0.4999999999999999
 40
0.4999999999999999
 40
0.4999999999999999
 40
0.5833333333333333
 40
0.5833333333333333
 40
0.5833333333333333
 40
0.5833333333333333
 40
0.6666666666666666
 40
0.6666666666666666
 40
0.6666666666666666
 40
0.6666666666666666
 40
0.75
 40
0.75
 40
0.75
 40
0.75
 40
0.8333333333333334
 40
0.8333333333333334
 40
0.8333333333333334
 40
0.8333333333333334
 40
0.9166666666666667
 40
0.9166666666666667
 40
0.9166666666666667
 40
0.9166666666666667
 40
1.0
 40
1.0
 40
1.0
 40
1.0
 10
-34.2727
 20
28.0643
 30
0.0
 10
-34.9983
 20
28.0643
 30
0.0
 10
-35.738
 20
28.1723
 30
0.0
 10
-36.4877
 20
28.3882
 30
0.0
 10
-36.4877
 20
28.3882
 30
0.0
 10
-37.23730000000001
 20
28.6061
 30
0.0
 10
-37.835
 20
28.8459
 30
0.0
 10
-38.2848
 20
29.1118
 30
0.0
 10
-38.2848
 20
29.1118
 30
0.0
 10
-38.7346
 20
29.3777
 30
0.0
 10
-39.0844
 20
29.6536
 30
0.0
 10
-39.3383
 20
29.9374
 30
0.0
 10
-39.3383
 20
29.9374
 30
0.0
 10
-39.59220000000001
 20
30.2233
 30
0.0
 10
-39.7801
 20
30.5032
 30
0.0
 10
-39.8981
 20
30.779
 30
0.0
 10
-39.8981
 20
30.779
 30
0.0
 10
-40.018
 20
31.0529
 30
0.0
 10
-40.076
 20
31.3588
 30
0.0
 10
-40.076
 20
31.6946
 30
0.0
 10
-40.076
 20
31.6946
 30
0.0
 10
-40.076
 20
32.3503
 30
0.0
 10
-39.8321
 20
32.898
 30
0.0
 10
-39.3443
 20
33.3378
 30
0.0
 10
-39.3443
 20
33.3378
 30
0.0
 10
-38.8565
 20
33.7776
 30
0.0
 10
-38.1529
 20
33.9975
 30
0.0
 10
-37.23130000000001
 20
33.9975
 30
0.0
 10
-37.23130000000001
 20
33.9975
 30
0.0
 10
-36.2817
 20
33.9975
 30
0.0
 10
-35.3422
 20
33.8436
 30
0.0
 10
-34.41260000000001
 20
33.5397
 30
0.0
 10
-34.41260000000001
 20
33.5397
 30
0.0
 10
-33.3131
 20
33.1799
 30
0.0
 10
-32.4875
 20
32.6801
 30
0.0
 10
-31.9358
 20
32.0404
 30
0.0
 10
-31.9358
 20
32.0404
 30
0.0
 10
-31.518
 20
31.5487
 30
0.0
 10
-31.3101
 20
30.9889
 30
0.0
 10
-31.3101
 20
30.3592
 30
0.0
 10
-31.3101
 20
30.3592
 30
0.0
 10
-31.3101
 20
29.7155
 30
0.0
 10
-31.562
 20
29.1718
 30
0.0
 10
-32.0677
 20
28.728
 30
0.0
 10
-32.0677
 20
28.728
 30
0.0
 10
-32.5735
 20
28.2862
 30
0.0
 10
-33.3091
 20
28.0643
 30
0.0
 10
-34.2727
 20
28.0643
 30
0.0
  0
SPLINE
  5
31
330
1F
100
AcDbEntity
  8
LC-012-007-KH--0
 62
   250
100
AcDbSpline
210
0.0
220
0.0
230
1.0
 70
    11
 71
     3
 72
    48
 73
    44
 74
     0
 42
0.0000000001
 43
0.0000000001
 40
0.0
 40
0.0
 40
0.0
 40
0.0
 40
0.0909090909090909
 40
0.0909090909090909
 40
0.0909090909090909
 40
0.0909090909090909
 40
0.1818181818181818
 40
0.1818181818181818
 40
0.1818181818181818
 40
0.1818181818181818
 40
0.2727272727272727
 40
0.2727272727272727
 40
0.2727272727272727
 40
0.2727272727272727
 40
0.3636363636363637
 40
0.3636363636363637
 40
0.3636363636363637
 40
0.3636363636363637
 40
0.4545454545454546
 40
0.4545454545454546
 40
0.4545454545454546
 40
0.4545454545454546
 40
0.5454545454545455
 40
0.5454545454545455
 40
0.5454545454545455
 40
0.5454545454545455
 40
0.6363636363636365
 40
0.6363636363636365
 40
0.6363636363636365
 40
0.6363636363636365
 40
0.7272727272727274
 40
0.7272727272727274
 40
0.7272727272727274
 40
0.7272727272727274
 40
0.8181818181818183
 40
0.8181818181818183
 40
0.8181818181818183
 40
0.8181818181818183
 40
0.9090909090909093
 40
0.9090909090909093
 40
0.9090909090909093
 40
0.9090909090909093
 40
1.0
 40
1.0
 40
1.0
 40
1.0
 10
-34.0028
 20
29.0898
 30
0.0
 10
-33.4771
 20
29.0898
 30
0.0
 10
-33.0652
 20
29.1758
 30
0.0
 10
-32.7674
 20
29.3517
 30
0.0
 10
-32.7674
 20
29.3517
 30
0.0
 10
-32.35760000000001
 20
29.5896
 30
0.0
 10
-32.1537
 20
29.9434
 30
0.0
 10
-32.1537
 20
30.4132
 30
0.0
 10
-32.1537
 20
30.4132
 30
0.0
 10
-32.1537
 20
30.823
 30
0.0
 10
-32.3376
 20
31.1948
 30
0.0
 10
-32.7094
 20
31.5307
 30
0.0
 10
-32.7094
 20
31.5307
 30
0.0
 10
-33.2332
 20
32.0145
 30
0.0
 10
-33.9988
 20
32.3803
 30
0.0
 10
-35.0083
 20
32.6242
 30
0.0
 10
-35.0083
 20
32.6242
 30
0.0
 10
-36.0179
 20
32.8681
 30
0.0
 10
-36.8415
 20
32.99
 30
0.0
 10
-37.4832
 20
32.99
 30
0.0
 10
-37.4832
 20
32.99
 30
0.0
 10
-38.0989
 20
32.99
 30
0.0
 10
-38.5447
 20
32.8721
 30
0.0
 10
-38.8186
 20
32.6342
 30
0.0
 10
-38.8186
 20
32.6342
 30
0.0
 10
-39.0904
 20
32.3983
 30
0.0
 10
-39.2284
 20
32.0884
 30
0.0
 10
-39.2284
 20
31.7006
 30
0.0
 10
-39.2284
 20
31.7006
 30
0.0
 10
-39.2284
 20
31.4207
 30
0.0
 10
-39.15640000000001
 20
31.1569
 30
0.0
 10
-39.0105
 20
30.913
 30
0.0
 10
-39.0105
 20
30.913
 30
0.0
 10
-38.8665
 20
30.6691
 30
0.0
 10
-38.6187
 20
30.4352
 30
0.0
 10
-38.2668
 20
30.2133
 30
0.0
 10
-38.2668
 20
30.2133
 30
0.0
 10
-37.7711
 20
29.8974
 30
0.0
 10
-37.0294
 20
29.6216
 30
0.0
 10
-36.0419
 20
29.3877
 30
0.0
 10
-36.0419
 20
29.3877
 30
0.0
 10
-35.1983
 20
29.1878
 30
0.0
 10
-34.5186
 20
29.0898
 30
0.0
 10
-34.0028
 20
29.0898
 30
0.0
  0
SPLINE
  5
32
330
1F
100
AcDbEntity
  8
LC-012-007-KH--0
 62
   250
100
AcDbSpline
210
0.0
220
0.0
230
1.0
 70
    11
 71
     3
 72
    64
 73
    60
 74
     0
 42
0.0000000001
 43
0.0000000001
 40
0.0
 40
0.0
 40
0.0
 40
0.0
 40
0.0666666666666667
 40
0.0666666666666667
 40
0.0666666666666667
 40
0.0666666666666667
 40
0.1333333333333333
 40
0.1333333333333333
 40
0.1333333333333333
 40
0.1333333333333333
 40
0.2
 40
0.2
 40
0.2
 40
0.2
 40
0.2666666666666667
 40
0.2666666666666667
 40
0.2666666666666667
 40
0.2666666666666667
 40
0.3333333333333333
 40
0.3333333333333333
 40
0.3333333333333333
 40
0.3333333333333333
 40
0.4
 40
0.4
 40
0.4
 40
0.4
 40
0.4666666666666666
 40
0.4666666666666666
 40
0.4666666666666666
 40
0.4666666666666666
 40
0.5333333333333333
 40
0.5333333333333333
 40
0.5333333333333333
 40
0.5333333333333333
 40
0.6
 40
0.6
 40
0.6
 40
0.6
 40
0.6666666666666666
 40
0.6666666666666666
 40
0.6666666666666666
 40
0.6666666666666666
 40
0.7333333333333333
 40
0.7333333333333333
 40
0.7333333333333333
 40
0.7333333333333333
 40
0.7999999999999999
 40
0.7999999999999999
 40
0.7999999999999999
 40
0.7999999999999999
 40
0.8666666666666666
 40
0.8666666666666666
 40
0.8666666666666666
 40
0.8666666666666666
 40
0.9333333333333332
 40
0.9333333333333332
 40
0.9333333333333332
 40
0.9333333333333332
 40
1.0
 40
1.0
 40
1.0
 40
1.0
 10
-31.456
 20
5.796600000000001
 30
0.0
 10
-31.456
 20
5.796600000000001
 30
0.0
 10
-40.042
 20
7.593800000000001
 30
0.0
 10
-40.042
 20
7.593800000000001
 30
0.0
 10
-40.042
 20
7.593800000000001
 30
0.0
 10
-40.042
 20
7.593800000000001
 30
0.0
 10
-40.042
 20
8.7073
 30
0.0
 10
-40.042
 20
8.7073
 30
0.0
 10
-40.042
 20
8.7073
 30
0.0
 10
-40.042
 20
8.7073
 30
0.0
 10
-36.8215
 20
10.1546
 30
0.0
 10
-36.8215
 20
10.1546
 30
0.0
 10
-36.8215
 20
10.1546
 30
0.0
 10
-35.836
 20
10.5944
 30
0.0
 10
-35.0083
 20
10.9442
 30
0.0
 10
-34.3367
 20
11.2021
 30
0.0
 10
-34.3367
 20
11.2021
 30
0.0
 10
-33.9468
 20
11.35
 30
0.0
 10
-33.4191
 20
11.522
 30
0.0
 10
-32.7554
 20
11.7179
 30
0.0
 10
-32.7554
 20
11.7179
 30
0.0
 10
-33.4791
 20
11.8238
 30
0.0
 10
-34.2247
 20
11.9558
 30
0.0
 10
-34.9943
 20
12.1157
 30
0.0
 10
-34.9943
 20
12.1157
 30
0.0
 10
-34.9943
 20
12.1157
 30
0.0
 10
-40.042
 20
13.1692
 30
0.0
 10
-40.042
 20
13.1692
 30
0.0
 10
-40.042
 20
13.1692
 30
0.0
 10
-40.042
 20
13.1692
 30
0.0
 10
-40.042
 20
14.2887
 30
0.0
 10
-40.042
 20
14.2887
 30
0.0
 10
-40.042
 20
14.2887
 30
0.0
 10
-40.042
 20
14.2887
 30
0.0
 10
-31.456
 20
12.4975
 30
0.0
 10
-31.456
 20
12.4975
 30
0.0
 10
-31.456
 20
12.4975
 30
0.0
 10
-31.456
 20
12.4975
 30
0.0
 10
-31.456
 20
11.36
 30
0.0
 10
-31.456
 20
11.36
 30
0.0
 10
-31.456
 20
11.36
 30
0.0
 10
-31.456
 20
11.36
 30
0.0
 10
-36.4157
 20
9.229000000000001
 30
0.0
 10
-36.4157
 20
9.229000000000001
 30
0.0
 10
-36.4157
 20
9.229000000000001
 30
0.0
 10
-37.2913
 20
8.8492
 30
0.0
 10
-38.0629
 20
8.555300000000001
 30
0.0
 10
-38.7306
 20
8.343400000000001
 30
0.0
 10
-38.7306
 20
8.343400000000001
 30
0.0
 10
-38.1709
 20
8.285500000000001
 30
0.0
 10
-37.4872
 20
8.1715
 30
0.0
 10
-36.6736
 20
8.003600000000001
 30
0.0
 10
-36.6736
 20
8.003600000000001
 30
0.0
 10
-36.6736
 20
8.003600000000001
 30
0.0
 10
-31.456
 20
6.9161
 30
0.0
 10
-31.456
 20
6.9161
 30
0.0
 10
-31.456
 20
6.9161
 30
0.0
 10
-31.456
 20
6.9161
 30
0.0
 10
-31.456
 20
5.796600000000001
 30
0.0
 10
-31.456
 20
5.796600000000001
 30
0.0
  0
SPLINE
  5
33
330
1F
100
AcDbEntity
  8
LC-012-007-KH--0
370
    13
100
AcDbSpline
210
0.0
220
0.0
230
1.0
 70
    11
 71
     3
 72
    20
 73
    16
 74
     0
 42
0.0000000001
 43
0.0000000001
 40
0.0
 40
0.0
 40
0.0
 40
0.0
 40
0.25
 40
0.25
 40
0.25
 40
0.25
 40
0.5
 40
0.5
 40
0.5
 40
0.5
 40
0.75
 40
0.75
 40
0.75
 40
0.75
 40
1.0
 40
1.0
 40
1.0
 40
1.0
 10
-3.3098
 20
56.1672
 30
0.0
 10
-3.3098
 20
57.2717
 30
0.0
 10
-4.205200000000001
 20
58.1672
 30
0.0
 10
-5.3098
 20
58.1672
 30
0.0
 10
-5.3098
 20
58.1672
 30
0.0
 10
-6.4143
 20
58.1672
 30
0.0
 10
-7.3098
 20
57.2717
 30
0.0
 10
-7.3098
 20
56.1672
 30
0.0
 10
-7.3098
 20
56.1672
 30
0.0
 10
-7.3098
 20
55.0626
 30
0.0
 10
-6.4143
 20
54.1672
 30
0.0
 10
-5.3098
 20
54.1672
 30
0.0
 10
-5.3098
 20
54.1672
 30
0.0
 10
-4.205200000000001
 20
54.1672
 30
0.0
 10
-3.3098
 20
55.0626
 30
0.0
 10
-3.3098
 20
56.1672
 30
0.0
  0
SPLINE
  5
34
330
1F
100
AcDbEntity
  8
LC-012-007-KH--0
370
    13
100
AcDbSpline
210
0.0
220
0.0
230
1.0
 70
    24
 71
     3
 72
     8
 73
     4
 74
     0
 42
0.0000000001
 43
0.0000000001
 40
0.0
 40
0.0
 40
0.0
 40
0.0
 40
1.0
 40
1.0
 40
1.0
 40
1.0
 10
-14.0598
 20
-23.3778
 30
0.0
 10
-14.0598
 20
-23.3778
 30
0.0
 10
-14.5598
 20
-23.0892
 30
0.0
 10
-14.5598
 20
-23.0892
 30
0.0
  0
SPLINE
  5
35
330
1F
100
AcDbEntity
  8
LC-012-007-KH--0
370
    13
100
AcDbSpline
210
0.0
220
0.0
230
1.0
 70
    24
 71
     3
 72
     8
 73
     4
 74
     0
 42
0.0000000001
 43
0.0000000001
 40
0.0
 40
0.0
 40
0.0
 40
0.0
 40
1.0
 40
1.0
 40
1.0
 40
1.0
 10
-14.5598
 20
49.5835
 30
0.0
 10
-14.5598
 20
49.5835
 30
0.0
 10
-14.0598
 20
49.8722
 30
0.0
 10
-14.0598
 20
49.8722
 30
0.0
  0
SPLINE
  5
36
330
1F
100
AcDbEntity
  8
LC-012-007-KH--0
370
    13
100
AcDbSpline
210
0.0
220
0.0
230
1.0
 70
    24
 71
     3
 72
     8
 73
     4
 74
     0
 42
0.0000000001
 43
0.0000000001
 40
0.0
 40
0.0
 40
0.0
 40
0.0
 40
1.0
 40
1.0
 40
1.0
 40
1.0
 10
-14.5598
 20
49.5835
 30
0.0
 10
-14.5598
 20
49.5835
 30
0.0
 10
-14.5598
 20
47.9972
 30
0.0
 10
-14.5598
 20
47.9972
 30
0.0
  0
SPLINE
  5
37
330
1F
100
AcDbEntity
  8
LC-012-007-KH--0
370
    13
100
AcDbSpline
210
0.0
220
0.0
230
1.0
 70
    24
 71
     3
 72
     8
 73
     4
 74
     0
 42
0.0000000001
 43
0.0000000001
 40
0.0
 40
0.0
 40
0.0
 40
0.0
 40
1.0
 40
1.0
 40
1.0
 40
1.0
 10
-14.5598
 20
-21.5028
 30
0.0
 10
-14.5598
 20
-21.5028
 30
0.0
 10
-14.5598
 20
-23.0892
 30
0.0
 10
-14.5598
 20
-23.0892
 30
0.0
  0
SPLINE
  5
38
330
1F
100
AcDbEntity
  8
LC-012-007-KH--0
370
    13
100
AcDbSpline
210
0.0
220
0.0
230
1.0
 70
    24
 71
     3
 72
     8
 73
     4
 74
     0
 42
0.0000000001
 43
0.0000000001
 40
0.0
 40
0.0
 40
0.0
 40
0.0
 40
1.0
 40
1.0
 40
1.0
 40
1.0
 10
-14.0598
 20
49.8722
 30
0.0
 10
-14.0598
 20
49.8722
 30
0.0
 10
-10.5598
 20
49.8722
 30
0.0
 10
-10.5598
 20
49.8722
 30
0.0
  0
SPLINE
  5
39
330
1F
100
AcDbEntity
  8
LC-012-007-KH--0
370
    13
100
AcDbSpline
210
0.0
220
0.0
230
1.0
 70
    24
 71
     3
 72
     8
 73
     4
 74
     0
 42
0.0000000001
 43
0.0000000001
 40
0.0
 40
0.0
 40
0.0
 40
0.0
 40
1.0
 40
1.0
 40
1.0
 40
1.0
 10
-10.5598
 20
-23.3778
 30
0.0
 10
-10.5598
 20
-23.3778
 30
0.0
 10
-14.0598
 20
-23.3778
 30
0.0
 10
-14.0598
 20
-23.3778
 30
0.0
  0
SPLINE
  5
3A
330
1F
100
AcDbEntity
  8
LC-012-007-KH--0
370
    13
100
AcDbSpline
210
0.0
220
0.0
230
1.0
 70
    24
 71
     3
 72
     8
 73
     4
 74
     0
 42
0.0000000001
 43
0.0000000001
 40
0.0
 40
0.0
 40
0.0
 40
0.0
 40
1.0
 40
1.0
 40
1.0
 40
1.0
 10
-14.0598
 20
49.2948
 30
0.0
 10
-14.0598
 20
49.2948
 30
0.0
 10
-14.5598
 20
49.5835
 30
0.0
 10
-14.5598
 20
49.5835
 30
0.0
  0
SPLINE
  5
3B
330
1F
100
AcDbEntity
  8
LC-012-007-KH--0
370
    13
100
AcDbSpline
210
0.0
220
0.0
230
1.0
 70
    24
 71
     3
 72
     8
 73
     4
 74
     0
 42
0.0000000001
 43
0.0000000001
 40
0.0
 40
0.0
 40
0.0
 40
0.0
 40
1.0
 40
1.0
 40
1.0
 40
1.0
 10
-14.5598
 20
-23.0892
 30
0.0
 10
-14.5598
 20
-23.0892
 30
0.0
 10
-14.0598
 20
-22.8005
 30
0.0
 10
-14.0598
 20
-22.8005
 30
0.0
  0
SPLINE
  5
3C
330
1F
100
AcDbEntity
  8
LC-012-007-KH--0
370
    13
100
AcDbSpline
210
0.0
220
0.0
230
1.0
 70
    24
 71
     3
 72
     8
 73
     4
 74
     0
 42
0.0000000001
 43
0.0000000001
 40
0.0
 40
0.0
 40
0.0
 40
0.0
 40
1.0
 40
1.0
 40
1.0
 40
1.0
 10
-4.2896
 20
49.3722
 30
0.0
 10
-4.2896
 20
49.3722
 30
0.0
 10
-2.8098
 20
49.3722
 30
0.0
 10
-2.8098
 20
49.3722
 30
0.0
  0
SPLINE
  5
3D
330
1F
100
AcDbEntity
  8
LC-012-007-KH--0
370
    13
100
AcDbSpline
210
0.0
220
0.0
230
1.0
 70
    24
 71
     3
 72
     8
 73
     4
 74
     0
 42
0.0000000001
 43
0.0000000001
 40
0.0
 40
0.0
 40
0.0
 40
0.0
 40
1.0
 40
1.0
 40
1.0
 40
1.0
 10
-2.8098
 20
-22.8778
 30
0.0
 10
-2.8098
 20
-22.8778
 30
0.0
 10
-4.2896
 20
-22.8778
 30
0.0
 10
-4.2896
 20
-22.8778
 30
0.0
  0
SPLINE
  5
3E
330
1F
100
AcDbEntity
  8
LC-012-007-KH--0
370
    13
100
AcDbSpline
210
0.0
220
0.0
230
1.0
 70
    24
 71
     3
 72
     8
 73
     4
 74
     0
 42
0.0000000001
 43
0.0000000001
 40
0.0
 40
0.0
 40
0.0
 40
0.0
 40
1.0
 40
1.0
 40
1.0
 40
1.0
 10
-4.2896
 20
-22.8778
 30
0.0
 10
-4.2896
 20
-22.8778
 30
0.0
 10
-8.809800000000001
 20
-20.2681
 30
0.0
 10
-8.809800000000001
 20
-20.2681
 30
0.0
  0
SPLINE
  5
3F
330
1F
100
AcDbEntity
  8
LC-012-007-KH--0
370
    13
100
AcDbSpline
210
0.0
220
0.0
230
1.0
 70
    24
 71
     3
 72
     8
 73
     4
 74
     0
 42
0.0000000001
 43
0.0000000001
 40
0.0
 40
0.0
 40
0.0
 40
0.0
 40
1.0
 40
1.0
 40
1.0
 40
1.0
 10
-8.809800000000001
 20
46.7625
 30
0.0
 10
-8.809800000000001
 20
46.7625
 30
0.0
 10
-4.2896
 20
49.3722
 30
0.0
 10
-4.2896
 20
49.3722
 30
0.0
  0
SPLINE
  5
40
330
1F
100
AcDbEntity
  8
LC-012-007-KH--0
370
    13
100
AcDbSpline
210
0.0
220
0.0
230
1.0
 70
    24
 71
     3
 72
     8
 73
     4
 74
     0
 42
0.0000000001
 43
0.0000000001
 40
0.0
 40
0.0
 40
0.0
 40
0.0
 40
1.0
 40
1.0
 40
1.0
 40
1.0
 10
-10.5598
 20
48.48130000000001
 30
0.0
 10
-10.5598
 20
48.48130000000001
 30
0.0
 10
-12.0598
 20
48.48130000000001
 30
0.0
 10
-12.0598
 20
48.48130000000001
 30
0.0
  0
SPLINE
  5
41
330
1F
100
AcDbEntity
  8
LC-012-007-KH--0
370
    13
100
AcDbSpline
210
0.0
220
0.0
230
1.0
 70
    24
 71
     3
 72
     8
 73
     4
 74
     0
 42
0.0000000001
 43
0.0000000001
 40
0.0
 40
0.0
 40
0.0
 40
0.0
 40
1.0
 40
1.0
 40
1.0
 40
1.0
 10
-12.0598
 20
-21.987
 30
0.0
 10
-12.0598
 20
-21.987
 30
0.0
 10
-10.5598
 20
-21.987
 30
0.0
 10
-10.5598
 20
-21.987
 30
0.0
  0
SPLINE
  5
42
330
1F
100
AcDbEntity
  8
LC-012-007-KH--0
370
    13
100
AcDbSpline
210
0.0
220
0.0
230
1.0
 70
    24
 71
     3
 72
     8
 73
     4
 74
     0
 42
0.0000000001
 43
0.0000000001
 40
0.0
 40
0.0
 40
0.0
 40
0.0
 40
1.0
 40
1.0
 40
1.0
 40
1.0
 10
-14.0598
 20
-21.7915
 30
0.0
 10
-14.0598
 20
-21.7915
 30
0.0
 10
-14.5598
 20
-21.5028
 30
0.0
 10
-14.5598
 20
-21.5028
 30
0.0
  0
SPLINE
  5
43
330
1F
100
AcDbEntity
  8
LC-012-007-KH--0
370
    13
100
AcDbSpline
210
0.0
220
0.0
230
1.0
 70
    24
 71
     3
 72
     8
 73
     4
 74
     0
 42
0.0000000001
 43
0.0000000001
 40
0.0
 40
0.0
 40
0.0
 40
0.0
 40
1.0
 40
1.0
 40
1.0
 40
1.0
 10
-14.5598
 20
47.9972
 30
0.0
 10
-14.5598
 20
47.9972
 30
0.0
 10
-14.0598
 20
48.2858
 30
0.0
 10
-14.0598
 20
48.2858
 30
0.0
  0
SPLINE
  5
44
330
1F
100
AcDbEntity
  8
LC-012-007-KH--0
370
    13
100
AcDbSpline
210
0.0
220
0.0
230
1.0
 70
    24
 71
     3
 72
     8
 73
     4
 74
     0
 42
0.0000000001
 43
0.0000000001
 40
0.0
 40
0.0
 40
0.0
 40
0.0
 40
1.0
 40
1.0
 40
1.0
 40
1.0
 10
-14.5598
 20
47.9972
 30
0.0
 10
-14.5598
 20
47.9972
 30
0.0
 10
-14.5598
 20
46.4972
 30
0.0
 10
-14.5598
 20
46.4972
 30
0.0
  0
SPLINE
  5
45
330
1F
100
AcDbEntity
  8
LC-012-007-KH--0
370
    13
100
AcDbSpline
210
0.0
220
0.0
230
1.0
 70
    24
 71
     3
 72
     8
 73
     4
 74
     0
 42
0.0000000001
 43
0.0000000001
 40
0.0
 40
0.0
 40
0.0
 40
0.0
 40
1.0
 40
1.0
 40
1.0
 40
1.0
 10
-14.5598
 20
-20.0028
 30
0.0
 10
-14.5598
 20
-20.0028
 30
0.0
 10
-14.5598
 20
-21.5028
 30
0.0
 10
-14.5598
 20
-21.5028
 30
0.0
  0
SPLINE
  5
46
330
1F
100
AcDbEntity
  8
LC-012-007-KH--0
370
    13
100
AcDbSpline
210
0.0
220
0.0
230
1.0
 70
    24
 71
     3
 72
     8
 73
     4
 74
     0
 42
0.0000000001
 43
0.0000000001
 40
0.0
 40
0.0
 40
0.0
 40
0.0
 40
1.0
 40
1.0
 40
1.0
 40
1.0
 10
-14.0598
 20
47.7085
 30
0.0
 10
-14.0598
 20
47.7085
 30
0.0
 10
-14.5598
 20
47.9972
 30
0.0
 10
-14.5598
 20
47.9972
 30
0.0
  0
SPLINE
  5
47
330
1F
100
AcDbEntity
  8
LC-012-007-KH--0
370
    13
100
AcDbSpline
210
0.0
220
0.0
230
1.0
 70
    24
 71
     3
 72
     8
 73
     4
 74
     0
 42
0.0000000001
 43
0.0000000001
 40
0.0
 40
0.0
 40
0.0
 40
0.0
 40
1.0
 40
1.0
 40
1.0
 40
1.0
 10
-14.5598
 20
-21.5028
 30
0.0
 10
-14.5598
 20
-21.5028
 30
0.0
 10
-14.0598
 20
-21.2142
 30
0.0
 10
-14.0598
 20
-21.2142
 30
0.0
  0
SPLINE
  5
48
330
1F
100
AcDbEntity
  8
LC-012-007-KH--0
370
    13
100
AcDbSpline
210
0.0
220
0.0
230
1.0
 70
    24
 71
     3
 72
     8
 73
     4
 74
     0
 42
0.0000000001
 43
0.0000000001
 40
0.0
 40
0.0
 40
0.0
 40
0.0
 40
1.0
 40
1.0
 40
1.0
 40
1.0
 10
-7.8098
 20
-18.5361
 30
0.0
 10
-7.8098
 20
-18.5361
 30
0.0
 10
-2.8098
 20
-21.4228
 30
0.0
 10
-2.8098
 20
-21.4228
 30
0.0
  0
SPLINE
  5
49
330
1F
100
AcDbEntity
  8
LC-012-007-KH--0
370
    13
100
AcDbSpline
210
0.0
220
0.0
230
1.0
 70
    24
 71
     3
 72
     8
 73
     4
 74
     0
 42
0.0000000001
 43
0.0000000001
 40
0.0
 40
0.0
 40
0.0
 40
0.0
 40
1.0
 40
1.0
 40
1.0
 40
1.0
 10
-2.8098
 20
47.9172
 30
0.0
 10
-2.8098
 20
47.9172
 30
0.0
 10
-7.8098
 20
45.0304
 30
0.0
 10
-7.8098
 20
45.0304
 30
0.0
  0
SPLINE
  5
4A
330
1F
100
AcDbEntity
  8
LC-012-007-KH--0
370
    13
100
AcDbSpline
210
0.0
220
0.0
230
1.0
 70
    24
 71
     3
 72
     8
 73
     4
 74
     0
 42
0.0000000001
 43
0.0000000001
 40
0.0
 40
0.0
 40
0.0
 40
0.0
 40
1.0
 40
1.0
 40
1.0
 40
1.0
 10
-2.8098
 20
47.9172
 30
0.0
 10
-2.8098
 20
47.9172
 30
0.0
 10
-2.8098
 20
45.8922
 30
0.0
 10
-2.8098
 20
45.8922
 30
0.0
  0
SPLINE
  5
4B
330
1F
100
AcDbEntity
  8
LC-012-007-KH--0
370
    13
100
AcDbSpline
210
0.0
220
0.0
230
1.0
 70
    24
 71
     3
 72
     8
 73
     4
 74
     0
 42
0.0000000001
 43
0.0000000001
 40
0.0
 40
0.0
 40
0.0
 40
0.0
 40
1.0
 40
1.0
 40
1.0
 40
1.0
 10
-2.8098
 20
-16.1572
 30
0.0
 10
-2.8098
 20
-16.1572
 30
0.0
 10
-2.8098
 20
-21.4228
 30
0.0
 10
-2.8098
 20
-21.4228
 30
0.0
  0
SPLINE
  5
4C
330
1F
100
AcDbEntity
  8
LC-012-007-KH--0
370
    13
100
AcDbSpline
210
0.0
220
0.0
230
1.0
 70
    24
 71
     3
 72
     8
 73
     4
 74
     0
 42
0.0000000001
 43
0.0000000001
 40
0.0
 40
0.0
 40
0.0
 40
0.0
 40
1.0
 40
1.0
 40
1.0
 40
1.0
 10
-14.0598
 20
-20.2915
 30
0.0
 10
-14.0598
 20
-20.2915
 30
0.0
 10
-14.5598
 20
-20.0028
 30
0.0
 10
-14.5598
 20
-20.0028
 30
0.0
  0
SPLINE
  5
4D
330
1F
100
AcDbEntity
  8
LC-012-007-KH--0
370
    13
100
AcDbSpline
210
0.0
220
0.0
230
1.0
 70
    24
 71
     3
 72
     8
 73
     4
 74
     0
 42
0.0000000001
 43
0.0000000001
 40
0.0
 40
0.0
 40
0.0
 40
0.0
 40
1.0
 40
1.0
 40
1.0
 40
1.0
 10
-14.5598
 20
46.4972
 30
0.0
 10
-14.5598
 20
46.4972
 30
0.0
 10
-14.0598
 20
46.7858
 30
0.0
 10
-14.0598
 20
46.7858
 30
0.0
  0
SPLINE
  5
4E
330
1F
100
AcDbEntity
  8
LC-012-007-KH--0
370
    13
100
AcDbSpline
210
0.0
220
0.0
230
1.0
 70
    24
 71
     3
 72
     8
 73
     4
 74
     0
 42
0.0000000001
 43
0.0000000001
 40
0.0
 40
0.0
 40
0.0
 40
0.0
 40
1.0
 40
1.0
 40
1.0
 40
1.0
 10
-14.5598
 20
46.4972
 30
0.0
 10
-14.5598
 20
46.4972
 30
0.0
 10
-14.5598
 20
44.9972
 30
0.0
 10
-14.5598
 20
44.9972
 30
0.0
  0
SPLINE
  5
4F
330
1F
100
AcDbEntity
  8
LC-012-007-KH--0
370
    13
100
AcDbSpline
210
0.0
220
0.0
230
1.0
 70
    24
 71
     3
 72
     8
 73
     4
 74
     0
 42
0.0000000001
 43
0.0000000001
 40
0.0
 40
0.0
 40
0.0
 40
0.0
 40
1.0
 40
1.0
 40
1.0
 40
1.0
 10
-14.5598
 20
-18.5028
 30
0.0
 10
-14.5598
 20
-18.5028
 30
0.0
 10
-14.5598
 20
-20.0028
 30
0.0
 10
-14.5598
 20
-20.0028
 30
0.0
  0
SPLINE
  5
50
330
1F
100
AcDbEntity
  8
LC-012-007-KH--0
370
    13
100
AcDbSpline
210
0.0
220
0.0
230
1.0
 70
    24
 71
     3
 72
     8
 73
     4
 74
     0
 42
0.0000000001
 43
0.0000000001
 40
0.0
 40
0.0
 40
0.0
 40
0.0
 40
1.0
 40
1.0
 40
1.0
 40
1.0
 10
-12.0598
 20
46.7625
 30
0.0
 10
-12.0598
 20
46.7625
 30
0.0
 10
-8.809800000000001
 20
46.7625
 30
0.0
 10
-8.809800000000001
 20
46.7625
 30
0.0
  0
SPLINE
  5
51
330
1F
100
AcDbEntity
  8
LC-012-007-KH--0
370
    13
100
AcDbSpline
210
0.0
220
0.0
230
1.0
 70
    24
 71
     3
 72
     8
 73
     4
 74
     0
 42
0.0000000001
 43
0.0000000001
 40
0.0
 40
0.0
 40
0.0
 40
0.0
 40
1.0
 40
1.0
 40
1.0
 40
1.0
 10
-8.809800000000001
 20
-20.2681
 30
0.0
 10
-8.809800000000001
 20
-20.2681
 30
0.0
 10
-12.0598
 20
-20.2681
 30
0.0
 10
-12.0598
 20
-20.2681
 30
0.0
  0
SPLINE
  5
52
330
1F
100
AcDbEntity
  8
LC-012-007-KH--0
370
    13
100
AcDbSpline
210
0.0
220
0.0
230
1.0
 70
    24
 71
     3
 72
     8
 73
     4
 74
     0
 42
0.0000000001
 43
0.0000000001
 40
0.0
 40
0.0
 40
0.0
 40
0.0
 40
1.0
 40
1.0
 40
1.0
 40
1.0
 10
-14.0598
 20
46.2085
 30
0.0
 10
-14.0598
 20
46.2085
 30
0.0
 10
-14.5598
 20
46.4972
 30
0.0
 10
-14.5598
 20
46.4972
 30
0.0
  0
SPLINE
  5
53
330
1F
100
AcDbEntity
  8
LC-012-007-KH--0
370
    13
100
AcDbSpline
210
0.0
220
0.0
230
1.0
 70
    24
 71
     3
 72
     8
 73
     4
 74
     0
 42
0.0000000001
 43
0.0000000001
 40
0.0
 40
0.0
 40
0.0
 40
0.0
 40
1.0
 40
1.0
 40
1.0
 40
1.0
 10
-14.5598
 20
-20.0028
 30
0.0
 10
-14.5598
 20
-20.0028
 30
0.0
 10
-14.0598
 20
-19.7142
 30
0.0
 10
-14.0598
 20
-19.7142
 30
0.0
  0
SPLINE
  5
54
330
1F
100
AcDbEntity
  8
LC-012-007-KH--0
370
    13
100
AcDbSpline
210
0.0
220
0.0
230
1.0
 70
    24
 71
     3
 72
     8
 73
     4
 74
     0
 42
0.0000000001
 43
0.0000000001
 40
0.0
 40
0.0
 40
0.0
 40
0.0
 40
1.0
 40
1.0
 40
1.0
 40
1.0
 10
-4.8098
 20
-18.9028
 30
0.0
 10
-4.8098
 20
-18.9028
 30
0.0
 10
-7.8098
 20
-17.2333
 30
0.0
 10
-7.8098
 20
-17.2333
 30
0.0
  0
SPLINE
  5
55
330
1F
100
AcDbEntity
  8
LC-012-007-KH--0
370
    13
100
AcDbSpline
210
0.0
220
0.0
230
1.0
 70
    24
 71
     3
 72
     8
 73
     4
 74
     0
 42
0.0000000001
 43
0.0000000001
 40
0.0
 40
0.0
 40
0.0
 40
0.0
 40
1.0
 40
1.0
 40
1.0
 40
1.0
 10
-4.8098
 20
45.39720000000001
 30
0.0
 10
-4.8098
 20
45.39720000000001
 30
0.0
 10
-4.8098
 20
42.2265
 30
0.0
 10
-4.8098
 20
42.2265
 30
0.0
  0
SPLINE
  5
56
330
1F
100
AcDbEntity
  8
LC-012-007-KH--0
370
    13
100
AcDbSpline
210
0.0
220
0.0
230
1.0
 70
    24
 71
     3
 72
     8
 73
     4
 74
     0
 42
0.0000000001
 43
0.0000000001
 40
0.0
 40
0.0
 40
0.0
 40
0.0
 40
1.0
 40
1.0
 40
1.0
 40
1.0
 10
-4.8098
 20
-16.1922
 30
0.0
 10
-4.8098
 20
-16.1922
 30
0.0
 10
-4.8098
 20
-18.9028
 30
0.0
 10
-4.8098
 20
-18.9028
 30
0.0
  0
SPLINE
  5
57
330
1F
100
AcDbEntity
  8
LC-012-007-KH--0
370
    13
100
AcDbSpline
210
0.0
220
0.0
230
1.0
 70
    24
 71
     3
 72
     8
 73
     4
 74
     0
 42
0.0000000001
 43
0.0000000001
 40
0.0
 40
0.0
 40
0.0
 40
0.0
 40
1.0
 40
1.0
 40
1.0
 40
1.0
 10
-7.8098
 20
43.7277
 30
0.0
 10
-7.8098
 20
43.7277
 30
0.0
 10
-4.8098
 20
45.39720000000001
 30
0.0
 10
-4.8098
 20
45.39720000000001
 30
0.0
  0
SPLINE
  5
58
330
1F
100
AcDbEntity
  8
LC-012-007-KH--0
370
    13
100
AcDbSpline
210
0.0
220
0.0
230
1.0
 70
    24
 71
     3
 72
     8
 73
     4
 74
     0
 42
0.0000000001
 43
0.0000000001
 40
0.0
 40
0.0
 40
0.0
 40
0.0
 40
1.0
 40
1.0
 40
1.0
 40
1.0
 10
-8.2249
 20
-16.1278
 30
0.0
 10
-8.2249
 20
-16.1278
 30
0.0
 10
-4.8098
 20
-18.9028
 30
0.0
 10
-4.8098
 20
-18.9028
 30
0.0
  0
SPLINE
  5
59
330
1F
100
AcDbEntity
  8
LC-012-007-KH--0
370
    13
100
AcDbSpline
210
0.0
220
0.0
230
1.0
 70
    24
 71
     3
 72
     8
 73
     4
 74
     0
 42
0.0000000001
 43
0.0000000001
 40
0.0
 40
0.0
 40
0.0
 40
0.0
 40
1.0
 40
1.0
 40
1.0
 40
1.0
 10
-8.2249
 20
42.6222
 30
0.0
 10
-8.2249
 20
42.6222
 30
0.0
 10
-8.2249
 20
-16.1278
 30
0.0
 10
-8.2249
 20
-16.1278
 30
0.0
  0
SPLINE
  5
5A
330
1F
100
AcDbEntity
  8
LC-012-007-KH--0
370
    13
100
AcDbSpline
210
0.0
220
0.0
230
1.0
 70
    24
 71
     3
 72
     8
 73
     4
 74
     0
 42
0.0000000001
 43
0.0000000001
 40
0.0
 40
0.0
 40
0.0
 40
0.0
 40
1.0
 40
1.0
 40
1.0
 40
1.0
 10
-4.8098
 20
45.39720000000001
 30
0.0
 10
-4.8098
 20
45.39720000000001
 30
0.0
 10
-8.2249
 20
42.6222
 30
0.0
 10
-8.2249
 20
42.6222
 30
0.0
  0
SPLINE
  5
5B
330
1F
100
AcDbEntity
  8
LC-012-007-KH--0
370
    13
100
AcDbSpline
210
0.0
220
0.0
230
1.0
 70
    24
 71
     3
 72
     8
 73
     4
 74
     0
 42
0.0000000001
 43
0.0000000001
 40
0.0
 40
0.0
 40
0.0
 40
0.0
 40
1.0
 40
1.0
 40
1.0
 40
1.0
 10
-14.0598
 20
-18.7915
 30
0.0
 10
-14.0598
 20
-18.7915
 30
0.0
 10
-14.5598
 20
-18.5028
 30
0.0
 10
-14.5598
 20
-18.5028
 30
0.0
  0
SPLINE
  5
5C
330
1F
100
AcDbEntity
  8
LC-012-007-KH--0
370
    13
100
AcDbSpline
210
0.0
220
0.0
230
1.0
 70
    24
 71
     3
 72
     8
 73
     4
 74
     0
 42
0.0000000001
 43
0.0000000001
 40
0.0
 40
0.0
 40
0.0
 40
0.0
 40
1.0
 40
1.0
 40
1.0
 40
1.0
 10
-14.5598
 20
44.9972
 30
0.0
 10
-14.5598
 20
44.9972
 30
0.0
 10
-14.0598
 20
45.2858
 30
0.0
 10
-14.0598
 20
45.2858
 30
0.0
  0
SPLINE
  5
5D
330
1F
100
AcDbEntity
  8
LC-012-007-KH--0
370
    13
100
AcDbSpline
210
0.0
220
0.0
230
1.0
 70
    24
 71
     3
 72
     8
 73
     4
 74
     0
 42
0.0000000001
 43
0.0000000001
 40
0.0
 40
0.0
 40
0.0
 40
0.0
 40
1.0
 40
1.0
 40
1.0
 40
1.0
 10
-14.5598
 20
44.9972
 30
0.0
 10
-14.5598
 20
44.9972
 30
0.0
 10
-14.5598
 20
-18.5028
 30
0.0
 10
-14.5598
 20
-18.5028
 30
0.0
  0
SPLINE
  5
5E
330
1F
100
AcDbEntity
  8
LC-012-007-KH--0
370
    13
100
AcDbSpline
210
0.0
220
0.0
230
1.0
 70
    24
 71
     3
 72
     8
 73
     4
 74
     0
 42
0.0000000001
 43
0.0000000001
 40
0.0
 40
0.0
 40
0.0
 40
0.0
 40
1.0
 40
1.0
 40
1.0
 40
1.0
 10
-14.0598
 20
44.7085
 30
0.0
 10
-14.0598
 20
44.7085
 30
0.0
 10
-14.5598
 20
44.9972
 30
0.0
 10
-14.5598
 20
44.9972
 30
0.0
  0
SPLINE
  5
5F
330
1F
100
AcDbEntity
  8
LC-012-007-KH--0
370
    13
100
AcDbSpline
210
0.0
220
0.0
230
1.0
 70
    24
 71
     3
 72
     8
 73
     4
 74
     0
 42
0.0000000001
 43
0.0000000001
 40
0.0
 40
0.0
 40
0.0
 40
0.0
 40
1.0
 40
1.0
 40
1.0
 40
1.0
 10
-14.5598
 20
-18.5028
 30
0.0
 10
-14.5598
 20
-18.5028
 30
0.0
 10
-14.0598
 20
-18.2142
 30
0.0
 10
-14.0598
 20
-18.2142
 30
0.0
  0
SPLINE
  5
60
330
1F
100
AcDbEntity
  8
LC-012-007-KH--0
370
    13
100
AcDbSpline
210
0.0
220
0.0
230
1.0
 70
    24
 71
     3
 72
     8
 73
     4
 74
     0
 42
0.0000000001
 43
0.0000000001
 40
0.0
 40
0.0
 40
0.0
 40
0.0
 40
1.0
 40
1.0
 40
1.0
 40
1.0
 10
-8.2249
 20
42.6222
 30
0.0
 10
-8.2249
 20
42.6222
 30
0.0
 10
-14.0598
 20
42.6222
 30
0.0
 10
-14.0598
 20
42.6222
 30
0.0
  0
SPLINE
  5
61
330
1F
100
AcDbEntity
  8
LC-012-007-KH--0
370
    13
100
AcDbSpline
210
0.0
220
0.0
230
1.0
 70
    24
 71
     3
 72
     8
 73
     4
 74
     0
 42
0.0000000001
 43
0.0000000001
 40
0.0
 40
0.0
 40
0.0
 40
0.0
 40
1.0
 40
1.0
 40
1.0
 40
1.0
 10
-14.0598
 20
-16.1278
 30
0.0
 10
-14.0598
 20
-16.1278
 30
0.0
 10
-8.2249
 20
-16.1278
 30
0.0
 10
-8.2249
 20
-16.1278
 30
0.0
  0
SPLINE
  5
62
330
1F
100
AcDbEntity
  8
LC-012-007-KH--0
370
    13
100
AcDbSpline
210
0.0
220
0.0
230
1.0
 70
    24
 71
     3
 72
     8
 73
     4
 74
     0
 42
0.0000000001
 43
0.0000000001
 40
0.0
 40
0.0
 40
0.0
 40
0.0
 40
1.0
 40
1.0
 40
1.0
 40
1.0
 10
-14.0598
 20
42.6222
 30
0.0
 10
-14.0598
 20
42.6222
 30
0.0
 10
-14.0598
 20
-16.1278
 30
0.0
 10
-14.0598
 20
-16.1278
 30
0.0
  0
SPLINE
  5
63
330
1F
100
AcDbEntity
  8
LC-012-007-KH--0
370
    13
100
AcDbSpline
210
0.0
220
0.0
230
1.0
 70
    24
 71
     3
 72
     8
 73
     4
 74
     0
 42
0.0000000001
 43
0.0000000001
 40
0.0
 40
0.0
 40
0.0
 40
0.0
 40
1.0
 40
1.0
 40
1.0
 40
1.0
 10
-14.0598
 20
-18.2142
 30
0.0
 10
-14.0598
 20
-18.2142
 30
0.0
 10
-14.0598
 20
-16.1278
 30
0.0
 10
-14.0598
 20
-16.1278
 30
0.0
  0
SPLINE
  5
64
330
1F
100
AcDbEntity
  8
LC-012-007-KH--0
370
    13
100
AcDbSpline
210
0.0
220
0.0
230
1.0
 70
    24
 71
     3
 72
     8
 73
     4
 74
     0
 42
0.0000000001
 43
0.0000000001
 40
0.0
 40
0.0
 40
0.0
 40
0.0
 40
1.0
 40
1.0
 40
1.0
 40
1.0
 10
-7.8098
 20
-17.2333
 30
0.0
 10
-7.8098
 20
-17.2333
 30
0.0
 10
-7.8098
 20
-18.5361
 30
0.0
 10
-7.8098
 20
-18.5361
 30
0.0
  0
SPLINE
  5
65
330
1F
100
AcDbEntity
  8
LC-012-007-KH--0
370
    13
100
AcDbSpline
210
0.0
220
0.0
230
1.0
 70
    24
 71
     3
 72
     8
 73
     4
 74
     0
 42
0.0000000001
 43
0.0000000001
 40
0.0
 40
0.0
 40
0.0
 40
0.0
 40
1.0
 40
1.0
 40
1.0
 40
1.0
 10
-14.0598
 20
-19.7142
 30
0.0
 10
-14.0598
 20
-19.7142
 30
0.0
 10
-14.0598
 20
-18.7915
 30
0.0
 10
-14.0598
 20
-18.7915
 30
0.0
  0
SPLINE
  5
66
330
1F
100
AcDbEntity
  8
LC-012-007-KH--0
370
    13
100
AcDbSpline
210
0.0
220
0.0
230
1.0
 70
    24
 71
     3
 72
     8
 73
     4
 74
     0
 42
0.0000000001
 43
0.0000000001
 40
0.0
 40
0.0
 40
0.0
 40
0.0
 40
1.0
 40
1.0
 40
1.0
 40
1.0
 10
-14.0598
 20
-21.2142
 30
0.0
 10
-14.0598
 20
-21.2142
 30
0.0
 10
-14.0598
 20
-20.2915
 30
0.0
 10
-14.0598
 20
-20.2915
 30
0.0
  0
SPLINE
  5
67
330
1F
100
AcDbEntity
  8
LC-012-007-KH--0
370
    13
100
AcDbSpline
210
0.0
220
0.0
230
1.0
 70
    24
 71
     3
 72
     8
 73
     4
 74
     0
 42
0.0000000001
 43
0.0000000001
 40
0.0
 40
0.0
 40
0.0
 40
0.0
 40
1.0
 40
1.0
 40
1.0
 40
1.0
 10
-12.0598
 20
-20.2681
 30
0.0
 10
-12.0598
 20
-20.2681
 30
0.0
 10
-12.0598
 20
-21.987
 30
0.0
 10
-12.0598
 20
-21.987
 30
0.0
  0
SPLINE
  5
68
330
1F
100
AcDbEntity
  8
LC-012-007-KH--0
370
    13
100
AcDbSpline
210
0.0
220
0.0
230
1.0
 70
    24
 71
     3
 72
     8
 73
     4
 74
     0
 42
0.0000000001
 43
0.0000000001
 40
0.0
 40
0.0
 40
0.0
 40
0.0
 40
1.0
 40
1.0
 40
1.0
 40
1.0
 10
-14.0598
 20
-22.8005
 30
0.0
 10
-14.0598
 20
-22.8005
 30
0.0
 10
-14.0598
 20
-21.7915
 30
0.0
 10
-14.0598
 20
-21.7915
 30
0.0
  0
SPLINE
  5
69
330
1F
100
AcDbEntity
  8
LC-012-007-KH--0
370
    13
100
AcDbSpline
210
0.0
220
0.0
230
1.0
 70
    24
 71
     3
 72
     8
 73
     4
 74
     0
 42
0.0000000001
 43
0.0000000001
 40
0.0
 40
0.0
 40
0.0
 40
0.0
 40
1.0
 40
1.0
 40
1.0
 40
1.0
 10
-2.8098
 20
-21.4228
 30
0.0
 10
-2.8098
 20
-21.4228
 30
0.0
 10
-2.8098
 20
-22.8778
 30
0.0
 10
-2.8098
 20
-22.8778
 30
0.0
  0
SPLINE
  5
6A
330
1F
100
AcDbEntity
  8
LC-012-007-KH--0
370
    13
100
AcDbSpline
210
0.0
220
0.0
230
1.0
 70
    24
 71
     3
 72
     8
 73
     4
 74
     0
 42
0.0000000001
 43
0.0000000001
 40
0.0
 40
0.0
 40
0.0
 40
0.0
 40
1.0
 40
1.0
 40
1.0
 40
1.0
 10
-10.5598
 20
-21.987
 30
0.0
 10
-10.5598
 20
-21.987
 30
0.0
 10
-10.5598
 20
-23.3778
 30
0.0
 10
-10.5598
 20
-23.3778
 30
0.0
  0
SPLINE
  5
6B
330
1F
100
AcDbEntity
  8
LC-012-007-KH--0
370
    13
100
AcDbSpline
210
0.0
220
0.0
230
1.0
 70
    24
 71
     3
 72
     8
 73
     4
 74
     0
 42
0.0000000001
 43
0.0000000001
 40
0.0
 40
0.0
 40
0.0
 40
0.0
 40
1.0
 40
1.0
 40
1.0
 40
1.0
 10
-14.0598
 20
42.6222
 30
0.0
 10
-14.0598
 20
42.6222
 30
0.0
 10
-14.0598
 20
44.7085
 30
0.0
 10
-14.0598
 20
44.7085
 30
0.0
  0
SPLINE
  5
6C
330
1F
100
AcDbEntity
  8
LC-012-007-KH--0
370
    13
100
AcDbSpline
210
0.0
220
0.0
230
1.0
 70
    24
 71
     3
 72
     8
 73
     4
 74
     0
 42
0.0000000001
 43
0.0000000001
 40
0.0
 40
0.0
 40
0.0
 40
0.0
 40
1.0
 40
1.0
 40
1.0
 40
1.0
 10
-7.8098
 20
45.0304
 30
0.0
 10
-7.8098
 20
45.0304
 30
0.0
 10
-7.8098
 20
43.7277
 30
0.0
 10
-7.8098
 20
43.7277
 30
0.0
  0
SPLINE
  5
6D
330
1F
100
AcDbEntity
  8
LC-012-007-KH--0
370
    13
100
AcDbSpline
210
0.0
220
0.0
230
1.0
 70
    24
 71
     3
 72
     8
 73
     4
 74
     0
 42
0.0000000001
 43
0.0000000001
 40
0.0
 40
0.0
 40
0.0
 40
0.0
 40
1.0
 40
1.0
 40
1.0
 40
1.0
 10
-14.0598
 20
45.2858
 30
0.0
 10
-14.0598
 20
45.2858
 30
0.0
 10
-14.0598
 20
46.2085
 30
0.0
 10
-14.0598
 20
46.2085
 30
0.0
  0
SPLINE
  5
6E
330
1F
100
AcDbEntity
  8
LC-012-007-KH--0
370
    13
100
AcDbSpline
210
0.0
220
0.0
230
1.0
 70
    24
 71
     3
 72
     8
 73
     4
 74
     0
 42
0.0000000001
 43
0.0000000001
 40
0.0
 40
0.0
 40
0.0
 40
0.0
 40
1.0
 40
1.0
 40
1.0
 40
1.0
 10
-14.0598
 20
46.7858
 30
0.0
 10
-14.0598
 20
46.7858
 30
0.0
 10
-14.0598
 20
47.7085
 30
0.0
 10
-14.0598
 20
47.7085
 30
0.0
  0
SPLINE
  5
6F
330
1F
100
AcDbEntity
  8
LC-012-007-KH--0
370
    13
100
AcDbSpline
210
0.0
220
0.0
230
1.0
 70
    24
 71
     3
 72
     8
 73
     4
 74
     0
 42
0.0000000001
 43
0.0000000001
 40
0.0
 40
0.0
 40
0.0
 40
0.0
 40
1.0
 40
1.0
 40
1.0
 40
1.0
 10
-12.0598
 20
48.48130000000001
 30
0.0
 10
-12.0598
 20
48.48130000000001
 30
0.0
 10
-12.0598
 20
46.7625
 30
0.0
 10
-12.0598
 20
46.7625
 30
0.0
  0
SPLINE
  5
70
330
1F
100
AcDbEntity
  8
LC-012-007-KH--0
370
    13
100
AcDbSpline
210
0.0
220
0.0
230
1.0
 70
    24
 71
     3
 72
     8
 73
     4
 74
     0
 42
0.0000000001
 43
0.0000000001
 40
0.0
 40
0.0
 40
0.0
 40
0.0
 40
1.0
 40
1.0
 40
1.0
 40
1.0
 10
-14.0598
 20
48.2858
 30
0.0
 10
-14.0598
 20
48.2858
 30
0.0
 10
-14.0598
 20
49.2948
 30
0.0
 10
-14.0598
 20
49.2948
 30
0.0
  0
SPLINE
  5
71
330
1F
100
AcDbEntity
  8
LC-012-007-KH--0
370
    13
100
AcDbSpline
210
0.0
220
0.0
230
1.0
 70
    24
 71
     3
 72
     8
 73
     4
 74
     0
 42
0.0000000001
 43
0.0000000001
 40
0.0
 40
0.0
 40
0.0
 40
0.0
 40
1.0
 40
1.0
 40
1.0
 40
1.0
 10
-2.8098
 20
49.3722
 30
0.0
 10
-2.8098
 20
49.3722
 30
0.0
 10
-2.8098
 20
47.9172
 30
0.0
 10
-2.8098
 20
47.9172
 30
0.0
  0
SPLINE
  5
72
330
1F
100
AcDbEntity
  8
LC-012-007-KH--0
370
    13
100
AcDbSpline
210
0.0
220
0.0
230
1.0
 70
    24
 71
     3
 72
     8
 73
     4
 74
     0
 42
0.0000000001
 43
0.0000000001
 40
0.0
 40
0.0
 40
0.0
 40
0.0
 40
1.0
 40
1.0
 40
1.0
 40
1.0
 10
-10.5598
 20
49.8722
 30
0.0
 10
-10.5598
 20
49.8722
 30
0.0
 10
-10.5598
 20
48.48130000000001
 30
0.0
 10
-10.5598
 20
48.48130000000001
 30
0.0
  0
SPLINE
  5
73
330
1F
100
AcDbEntity
  8
LC-012-007-KH--0
370
    13
100
AcDbSpline
210
0.0
220
0.0
230
1.0
 70
    24
 71
     3
 72
     8
 73
     4
 74
     0
 42
0.0000000001
 43
0.0000000001
 40
0.0
 40
0.0
 40
0.0
 40
0.0
 40
1.0
 40
1.0
 40
1.0
 40
1.0
 10
-5.489800000000001
 20
45.8922
 30
0.0
 10
-5.489800000000001
 20
45.8922
 30
0.0
 10
-1.3398
 20
45.8922
 30
0.0
 10
-1.3398
 20
45.8922
 30
0.0
  0
SPLINE
  5
74
330
1F
100
AcDbEntity
  8
LC-012-007-KH--0
370
    13
100
AcDbSpline
210
0.0
220
0.0
230
1.0
 70
     8
 71
     3
 72
     8
 73
     4
 74
     0
 42
0.0000000001
 43
0.0000000001
 40
0.0
 40
0.0
 40
0.0
 40
0.0
 40
1.0
 40
1.0
 40
1.0
 40
1.0
 10
-1.3398
 20
45.8922
 30
0.0
 10
-1.0636
 20
45.8922
 30
0.0
 10
-0.8398
 20
46.116
 30
0.0
 10
-0.8398
 20
46.3922
 30
0.0
  0
SPLINE
  5
75
330
1F
100
AcDbEntity
  8
LC-012-007-KH--0
370
    13
100
AcDbSpline
210
0.0
220
0.0
230
1.0
 70
    24
 71
     3
 72
     8
 73
     4
 74
     0
 42
0.0000000001
 43
0.0000000001
 40
0.0
 40
0.0
 40
0.0
 40
0.0
 40
1.0
 40
1.0
 40
1.0
 40
1.0
 10
-0.8398
 20
46.3922
 30
0.0
 10
-0.8398
 20
46.3922
 30
0.0
 10
-0.8398
 20
51.5522
 30
0.0
 10
-0.8398
 20
51.5522
 30
0.0
  0
SPLINE
  5
76
330
1F
100
AcDbEntity
  8
LC-012-007-KH--0
370
    13
100
AcDbSpline
210
0.0
220
0.0
230
1.0
 70
    24
 71
     3
 72
     8
 73
     4
 74
     0
 42
0.0000000001
 43
0.0000000001
 40
0.0
 40
0.0
 40
0.0
 40
0.0
 40
1.0
 40
1.0
 40
1.0
 40
1.0
 10
-0.8398
 20
51.5522
 30
0.0
 10
-0.8398
 20
51.5522
 30
0.0
 10
-1.5352
 20
53.6172
 30
0.0
 10
-1.5352
 20
53.6172
 30
0.0
  0
SPLINE
  5
77
330
1F
100
AcDbEntity
  8
LC-012-007-KH--0
370
    13
100
AcDbSpline
210
0.0
220
0.0
230
1.0
 70
    24
 71
     3
 72
     8
 73
     4
 74
     0
 42
0.0000000001
 43
0.0000000001
 40
0.0
 40
0.0
 40
0.0
 40
0.0
 40
1.0
 40
1.0
 40
1.0
 40
1.0
 10
-1.5352
 20
53.6172
 30
0.0
 10
-1.5352
 20
53.6172
 30
0.0
 10
-1.1666
 20
53.6172
 30
0.0
 10
-1.1666
 20
53.6172
 30
0.0
  0
SPLINE
  5
78
330
1F
100
AcDbEntity
  8
LC-012-007-KH--0
370
    13
100
AcDbSpline
210
0.0
220
0.0
230
1.0
 70
    24
 71
     3
 72
     8
 73
     4
 74
     0
 42
0.0000000001
 43
0.0000000001
 40
0.0
 40
0.0
 40
0.0
 40
0.0
 40
1.0
 40
1.0
 40
1.0
 40
1.0
 10
-1.1666
 20
53.6172
 30
0.0
 10
-1.1666
 20
53.6172
 30
0.0
 10
-0.4898
 20
51.60610000000001
 30
0.0
 10
-0.4898
 20
51.60610000000001
 30
0.0
  0
SPLINE
  5
79
330
1F
100
AcDbEntity
  8
LC-012-007-KH--0
370
    13
100
AcDbSpline
210
0.0
220
0.0
230
1.0
 70
    24
 71
     3
 72
     8
 73
     4
 74
     0
 42
0.0000000001
 43
0.0000000001
 40
0.0
 40
0.0
 40
0.0
 40
0.0
 40
1.0
 40
1.0
 40
1.0
 40
1.0
 10
-0.4898
 20
46.3922
 30
0.0
 10
-0.4898
 20
46.3922
 30
0.0
 10
-0.4898
 20
51.60610000000001
 30
0.0
 10
-0.4898
 20
51.60610000000001
 30
0.0
  0
SPLINE
  5
7A
330
1F
100
AcDbEntity
  8
LC-012-007-KH--0
370
    13
100
AcDbSpline
210
0.0
220
0.0
230
1.0
 70
     8
 71
     3
 72
     8
 73
     4
 74
     0
 42
0.0000000001
 43
0.0000000001
 40
0.0
 40
0.0
 40
0.0
 40
0.0
 40
1.0
 40
1.0
 40
1.0
 40
1.0
 10
-1.3398
 20
45.5422
 30
0.0
 10
-0.8703000000000001
 20
45.5422
 30
0.0
 10
-0.4898
 20
45.9227
 30
0.0
 10
-0.4898
 20
46.3922
 30
0.0
  0
SPLINE
  5
7B
330
1F
100
AcDbEntity
  8
LC-012-007-KH--0
370
    13
100
AcDbSpline
210
0.0
220
0.0
230
1.0
 70
    24
 71
     3
 72
     8
 73
     4
 74
     0
 42
0.0000000001
 43
0.0000000001
 40
0.0
 40
0.0
 40
0.0
 40
0.0
 40
1.0
 40
1.0
 40
1.0
 40
1.0
 10
-1.3398
 20
45.5422
 30
0.0
 10
-1.3398
 20
45.5422
 30
0.0
 10
-5.489800000000001
 20
45.5422
 30
0.0
 10
-5.489800000000001
 20
45.5422
 30
0.0
  0
SPLINE
  5
7C
330
1F
100
AcDbEntity
  8
LC-012-007-KH--0
370
    13
100
AcDbSpline
210
0.0
220
0.0
230
1.0
 70
    24
 71
     3
 72
     8
 73
     4
 74
     0
 42
0.0000000001
 43
0.0000000001
 40
0.0
 40
0.0
 40
0.0
 40
0.0
 40
1.0
 40
1.0
 40
1.0
 40
1.0
 10
-5.489800000000001
 20
45.5422
 30
0.0
 10
-5.489800000000001
 20
45.5422
 30
0.0
 10
-6.989800000000001
 20
45.5424
 30
0.0
 10
-6.989800000000001
 20
45.5424
 30
0.0
  0
SPLINE
  5
7D
330
1F
100
AcDbEntity
  8
LC-012-007-KH--0
370
    13
100
AcDbSpline
210
0.0
220
0.0
230
1.0
 70
     8
 71
     3
 72
    12
 73
     8
 74
     0
 42
0.0000000001
 43
0.0000000001
 40
0.0
 40
0.0
 40
0.0
 40
0.0
 40
0.5
 40
0.5
 40
0.5
 40
0.5
 40
1.0
 40
1.0
 40
1.0
 40
1.0
 10
-6.989800000000001
 20
45.5424
 30
0.0
 10
-7.029500000000001
 20
45.5424
 30
0.0
 10
-7.0677
 20
45.5266
 30
0.0
 10
-7.095800000000001
 20
45.4985
 30
0.0
 10
-7.095800000000001
 20
45.4985
 30
0.0
 10
-7.124000000000001
 20
45.4703
 30
0.0
 10
-7.1398
 20
45.4322
 30
0.0
 10
-7.1398
 20
45.3924
 30
0.0
  0
SPLINE
  5
7E
330
1F
100
AcDbEntity
  8
LC-012-007-KH--0
370
    13
100
AcDbSpline
210
0.0
220
0.0
230
1.0
 70
    24
 71
     3
 72
     8
 73
     4
 74
     0
 42
0.0000000001
 43
0.0000000001
 40
0.0
 40
0.0
 40
0.0
 40
0.0
 40
1.0
 40
1.0
 40
1.0
 40
1.0
 10
-7.1398
 20
45.3924
 30
0.0
 10
-7.1398
 20
45.3924
 30
0.0
 10
-7.1398
 20
42.4146
 30
0.0
 10
-7.1398
 20
42.4146
 30
0.0
  0
SPLINE
  5
7F
330
1F
100
AcDbEntity
  8
LC-012-007-KH--0
370
    13
100
AcDbSpline
210
0.0
220
0.0
230
1.0
 70
     8
 71
     3
 72
     8
 73
     4
 74
     0
 42
0.0000000001
 43
0.0000000001
 40
0.0
 40
0.0
 40
0.0
 40
0.0
 40
1.0
 40
1.0
 40
1.0
 40
1.0
 10
-7.1398
 20
42.4146
 30
0.0
 10
-7.1398
 20
42.3328
 30
0.0
 10
-7.0742
 20
42.26600000000001
 30
0.0
 10
-6.9924
 20
42.2646
 30
0.0
  0
SPLINE
  5
80
330
1F
100
AcDbEntity
  8
LC-012-007-KH--0
370
    13
100
AcDbSpline
210
0.0
220
0.0
230
1.0
 70
    24
 71
     3
 72
     8
 73
     4
 74
     0
 42
0.0000000001
 43
0.0000000001
 40
0.0
 40
0.0
 40
0.0
 40
0.0
 40
1.0
 40
1.0
 40
1.0
 40
1.0
 10
-6.9924
 20
42.2646
 30
0.0
 10
-6.9924
 20
42.2646
 30
0.0
 10
-2.9195
 20
42.1935
 30
0.0
 10
-2.9195
 20
42.1935
 30
0.0
  0
SPLINE
  5
81
330
1F
100
AcDbEntity
  8
LC-012-007-KH--0
370
    13
100
AcDbSpline
210
0.0
220
0.0
230
1.0
 70
     8
 71
     3
 72
     8
 73
     4
 74
     0
 42
0.0000000001
 43
0.0000000001
 40
0.0
 40
0.0
 40
0.0
 40
0.0
 40
1.0
 40
1.0
 40
1.0
 40
1.0
 10
-1.5336
 20
41.1996
 30
0.0
 10
-1.744
 20
41.7869
 30
0.0
 10
-2.2958
 20
42.1826
 30
0.0
 10
-2.9195
 20
42.1935
 30
0.0
  0
SPLINE
  5
82
330
1F
100
AcDbEntity
  8
LC-012-007-KH--0
370
    13
100
AcDbSpline
210
0.0
220
0.0
230
1.0
 70
    24
 71
     3
 72
     8
 73
     4
 74
     0
 42
0.0000000001
 43
0.0000000001
 40
0.0
 40
0.0
 40
0.0
 40
0.0
 40
1.0
 40
1.0
 40
1.0
 40
1.0
 10
6.3508
 20
19.1915
 30
0.0
 10
6.3508
 20
19.1915
 30
0.0
 10
-1.5336
 20
41.1996
 30
0.0
 10
-1.5336
 20
41.1996
 30
0.0
  0
SPLINE
  5
83
330
1F
100
AcDbEntity
  8
LC-012-007-KH--0
370
    13
100
AcDbSpline
210
0.0
220
0.0
230
1.0
 70
     8
 71
     3
 72
     8
 73
     4
 74
     0
 42
0.0000000001
 43
0.0000000001
 40
0.0
 40
0.0
 40
0.0
 40
0.0
 40
1.0
 40
1.0
 40
1.0
 40
1.0
 10
6.082100000000001
 20
18.2416
 30
0.0
 10
6.365200000000001
 20
18.4685
 30
0.0
 10
6.473100000000001
 20
18.85
 30
0.0
 10
6.3508
 20
19.1915
 30
0.0
  0
SPLINE
  5
84
330
1F
100
AcDbEntity
  8
LC-012-007-KH--0
370
    13
100
AcDbSpline
210
0.0
220
0.0
230
1.0
 70
    24
 71
     3
 72
     8
 73
     4
 74
     0
 42
0.0000000001
 43
0.0000000001
 40
0.0
 40
0.0
 40
0.0
 40
0.0
 40
1.0
 40
1.0
 40
1.0
 40
1.0
 10
5.403300000000001
 20
17.6975
 30
0.0
 10
5.403300000000001
 20
17.6975
 30
0.0
 10
6.082100000000001
 20
18.2416
 30
0.0
 10
6.082100000000001
 20
18.2416
 30
0.0
  0
SPLINE
  5
85
330
1F
100
AcDbEntity
  8
LC-012-007-KH--0
370
    13
100
AcDbSpline
210
0.0
220
0.0
230
1.0
 70
     8
 71
     3
 72
     8
 73
     4
 74
     0
 42
0.0000000001
 43
0.0000000001
 40
0.0
 40
0.0
 40
0.0
 40
0.0
 40
1.0
 40
1.0
 40
1.0
 40
1.0
 10
-0.3207
 20
-15.0361
 30
0.0
 10
4.1927
 20
-4.7443
 30
0.0
 10
6.1562
 20
6.484500000000001
 30
0.0
 10
5.403300000000001
 20
17.6972
 30
0.0
  0
SPLINE
  5
86
330
1F
100
AcDbEntity
  8
LC-012-007-KH--0
370
    13
100
AcDbSpline
210
0.0
220
0.0
230
1.0
 70
     8
 71
     3
 72
     8
 73
     4
 74
     0
 42
0.0000000001
 43
0.0000000001
 40
0.0
 40
0.0
 40
0.0
 40
0.0
 40
1.0
 40
1.0
 40
1.0
 40
1.0
 10
-1.9827
 20
-16.1428
 30
0.0
 10
-1.2601
 20
-16.1302
 30
0.0
 10
-0.611
 20
-15.698
 30
0.0
 10
-0.3207
 20
-15.0361
 30
0.0
  0
SPLINE
  5
87
330
1F
100
AcDbEntity
  8
LC-012-007-KH--0
370
    13
100
AcDbSpline
210
0.0
220
0.0
230
1.0
 70
    24
 71
     3
 72
     8
 73
     4
 74
     0
 42
0.0000000001
 43
0.0000000001
 40
0.0
 40
0.0
 40
0.0
 40
0.0
 40
1.0
 40
1.0
 40
1.0
 40
1.0
 10
-1.9827
 20
-16.1428
 30
0.0
 10
-1.9827
 20
-16.1428
 30
0.0
 10
-6.9924
 20
-16.2303
 30
0.0
 10
-6.9924
 20
-16.2303
 30
0.0
  0
SPLINE
  5
88
330
1F
100
AcDbEntity
  8
LC-012-007-KH--0
370
    13
100
AcDbSpline
210
0.0
220
0.0
230
1.0
 70
     8
 71
     3
 72
     8
 73
     4
 74
     0
 42
0.0000000001
 43
0.0000000001
 40
0.0
 40
0.0
 40
0.0
 40
0.0
 40
1.0
 40
1.0
 40
1.0
 40
1.0
 10
-6.9924
 20
-16.2303
 30
0.0
 10
-7.0742
 20
-16.2317
 30
0.0
 10
-7.1398
 20
-16.2984
 30
0.0
 10
-7.1398
 20
-16.3802
 30
0.0
  0
SPLINE
  5
89
330
1F
100
AcDbEntity
  8
LC-012-007-KH--0
370
    13
100
AcDbSpline
210
0.0
220
0.0
230
1.0
 70
    24
 71
     3
 72
     8
 73
     4
 74
     0
 42
0.0000000001
 43
0.0000000001
 40
0.0
 40
0.0
 40
0.0
 40
0.0
 40
1.0
 40
1.0
 40
1.0
 40
1.0
 10
-7.1398
 20
-16.3802
 30
0.0
 10
-7.1398
 20
-16.3802
 30
0.0
 10
-7.1398
 20
-19.3581
 30
0.0
 10
-7.1398
 20
-19.3581
 30
0.0
  0
SPLINE
  5
8A
330
1F
100
AcDbEntity
  8
LC-012-007-KH--0
370
    13
100
AcDbSpline
210
0.0
220
0.0
230
1.0
 70
     8
 71
     3
 72
    12
 73
     8
 74
     0
 42
0.0000000001
 43
0.0000000001
 40
0.0
 40
0.0
 40
0.0
 40
0.0
 40
0.5
 40
0.5
 40
0.5
 40
0.5
 40
1.0
 40
1.0
 40
1.0
 40
1.0
 10
-7.1398
 20
-19.3581
 30
0.0
 10
-7.1398
 20
-19.3978
 30
0.0
 10
-7.124000000000001
 20
-19.436
 30
0.0
 10
-7.095800000000001
 20
-19.4641
 30
0.0
 10
-7.095800000000001
 20
-19.4641
 30
0.0
 10
-7.0677
 20
-19.4923
 30
0.0
 10
-7.029500000000001
 20
-19.5081
 30
0.0
 10
-6.989800000000001
 20
-19.5081
 30
0.0
  0
SPLINE
  5
8B
330
1F
100
AcDbEntity
  8
LC-012-007-KH--0
370
    13
100
AcDbSpline
210
0.0
220
0.0
230
1.0
 70
    24
 71
     3
 72
     8
 73
     4
 74
     0
 42
0.0000000001
 43
0.0000000001
 40
0.0
 40
0.0
 40
0.0
 40
0.0
 40
1.0
 40
1.0
 40
1.0
 40
1.0
 10
-6.989800000000001
 20
-19.5081
 30
0.0
 10
-6.989800000000001
 20
-19.5081
 30
0.0
 10
-5.489800000000001
 20
-19.5081
 30
0.0
 10
-5.489800000000001
 20
-19.5081
 30
0.0
  0
SPLINE
  5
8C
330
1F
100
AcDbEntity
  8
LC-012-007-KH--0
370
    13
100
AcDbSpline
210
0.0
220
0.0
230
1.0
 70
    24
 71
     3
 72
     8
 73
     4
 74
     0
 42
0.0000000001
 43
0.0000000001
 40
0.0
 40
0.0
 40
0.0
 40
0.0
 40
1.0
 40
1.0
 40
1.0
 40
1.0
 10
-5.489800000000001
 20
-19.5081
 30
0.0
 10
-5.489800000000001
 20
-19.5081
 30
0.0
 10
-5.489800000000001
 20
-19.8581
 30
0.0
 10
-5.489800000000001
 20
-19.8581
 30
0.0
  0
SPLINE
  5
8D
330
1F
100
AcDbEntity
  8
LC-012-007-KH--0
370
    13
100
AcDbSpline
210
0.0
220
0.0
230
1.0
 70
    24
 71
     3
 72
     8
 73
     4
 74
     0
 42
0.0000000001
 43
0.0000000001
 40
0.0
 40
0.0
 40
0.0
 40
0.0
 40
1.0
 40
1.0
 40
1.0
 40
1.0
 10
-5.489800000000001
 20
-19.8581
 30
0.0
 10
-5.489800000000001
 20
-19.8581
 30
0.0
 10
-6.989800000000001
 20
-19.8581
 30
0.0
 10
-6.989800000000001
 20
-19.8581
 30
0.0
  0
SPLINE
  5
8E
330
1F
100
AcDbEntity
  8
LC-012-007-KH--0
370
    13
100
AcDbSpline
210
0.0
220
0.0
230
1.0
 70
     8
 71
     3
 72
    12
 73
     8
 74
     0
 42
0.0000000001
 43
0.0000000001
 40
0.0
 40
0.0
 40
0.0
 40
0.0
 40
0.5
 40
0.5
 40
0.5
 40
0.5
 40
1.0
 40
1.0
 40
1.0
 40
1.0
 10
-7.489800000000001
 20
-19.3581
 30
0.0
 10
-7.489800000000001
 20
-19.4907
 30
0.0
 10
-7.4371
 20
-19.6178
 30
0.0
 10
-7.3433
 20
-19.7116
 30
0.0
 10
-7.3433
 20
-19.7116
 30
0.0
 10
-7.2495
 20
-19.8054
 30
0.0
 10
-7.122400000000001
 20
-19.8581
 30
0.0
 10
-6.989800000000001
 20
-19.8581
 30
0.0
  0
SPLINE
  5
8F
330
1F
100
AcDbEntity
  8
LC-012-007-KH--0
370
    13
100
AcDbSpline
210
0.0
220
0.0
230
1.0
 70
    24
 71
     3
 72
     8
 73
     4
 74
     0
 42
0.0000000001
 43
0.0000000001
 40
0.0
 40
0.0
 40
0.0
 40
0.0
 40
1.0
 40
1.0
 40
1.0
 40
1.0
 10
-7.489800000000001
 20
-19.3581
 30
0.0
 10
-7.489800000000001
 20
-19.3581
 30
0.0
 10
-7.489800000000001
 20
-16.3802
 30
0.0
 10
-7.489800000000001
 20
-16.3802
 30
0.0
  0
SPLINE
  5
90
330
1F
100
AcDbEntity
  8
LC-012-007-KH--0
370
    13
100
AcDbSpline
210
0.0
220
0.0
230
1.0
 70
     8
 71
     3
 72
     8
 73
     4
 74
     0
 42
0.0000000001
 43
0.0000000001
 40
0.0
 40
0.0
 40
0.0
 40
0.0
 40
1.0
 40
1.0
 40
1.0
 40
1.0
 10
-6.9985
 20
-15.8803
 30
0.0
 10
-7.2712
 20
-15.8851
 30
0.0
 10
-7.489800000000001
 20
-16.1075
 30
0.0
 10
-7.489800000000001
 20
-16.3802
 30
0.0
  0
SPLINE
  5
91
330
1F
100
AcDbEntity
  8
LC-012-007-KH--0
370
    13
100
AcDbSpline
210
0.0
220
0.0
230
1.0
 70
    24
 71
     3
 72
     8
 73
     4
 74
     0
 42
0.0000000001
 43
0.0000000001
 40
0.0
 40
0.0
 40
0.0
 40
0.0
 40
1.0
 40
1.0
 40
1.0
 40
1.0
 10
-6.9985
 20
-15.8803
 30
0.0
 10
-6.9985
 20
-15.8803
 30
0.0
 10
-1.9888
 20
-15.7929
 30
0.0
 10
-1.9888
 20
-15.7929
 30
0.0
  0
SPLINE
  5
92
330
1F
100
AcDbEntity
  8
LC-012-007-KH--0
370
    13
100
AcDbSpline
210
0.0
220
0.0
230
1.0
 70
     8
 71
     3
 72
     8
 73
     4
 74
     0
 42
0.0000000001
 43
0.0000000001
 40
0.0
 40
0.0
 40
0.0
 40
0.0
 40
1.0
 40
1.0
 40
1.0
 40
1.0
 10
-1.9888
 20
-15.7929
 30
0.0
 10
-1.4029
 20
-15.7826
 30
0.0
 10
-0.8766000000000001
 20
-15.4322
 30
0.0
 10
-0.6413
 20
-14.8955
 30
0.0
  0
SPLINE
  5
93
330
1F
100
AcDbEntity
  8
LC-012-007-KH--0
370
    13
100
AcDbSpline
210
0.0
220
0.0
230
1.0
 70
     8
 71
     3
 72
     8
 73
     4
 74
     0
 42
0.0000000001
 43
0.0000000001
 40
0.0
 40
0.0
 40
0.0
 40
0.0
 40
1.0
 40
1.0
 40
1.0
 40
1.0
 10
-0.6413
 20
-14.8955
 30
0.0
 10
7.1607
 20
2.895
 30
0.0
 10
7.1607
 20
23.1389
 30
0.0
 10
-0.6411
 20
40.9295
 30
0.0
  0
SPLINE
  5
94
330
1F
100
AcDbEntity
  8
LC-012-007-KH--0
370
    13
100
AcDbSpline
210
0.0
220
0.0
230
1.0
 70
     8
 71
     3
 72
     8
 73
     4
 74
     0
 42
0.0000000001
 43
0.0000000001
 40
0.0
 40
0.0
 40
0.0
 40
0.0
 40
1.0
 40
1.0
 40
1.0
 40
1.0
 10
-0.6413
 20
40.9299
 30
0.0
 10
-0.8766000000000001
 20
41.4665
 30
0.0
 10
-1.4029
 20
41.817
 30
0.0
 10
-1.9888
 20
41.82720000000001
 30
0.0
  0
SPLINE
  5
95
330
1F
100
AcDbEntity
  8
LC-012-007-KH--0
370
    13
100
AcDbSpline
210
0.0
220
0.0
230
1.0
 70
    24
 71
     3
 72
     8
 73
     4
 74
     0
 42
0.0000000001
 43
0.0000000001
 40
0.0
 40
0.0
 40
0.0
 40
0.0
 40
1.0
 40
1.0
 40
1.0
 40
1.0
 10
-1.9888
 20
41.82720000000001
 30
0.0
 10
-1.9888
 20
41.82720000000001
 30
0.0
 10
-6.9985
 20
41.9147
 30
0.0
 10
-6.9985
 20
41.9147
 30
0.0
  0
SPLINE
  5
96
330
1F
100
AcDbEntity
  8
LC-012-007-KH--0
370
    13
100
AcDbSpline
210
0.0
220
0.0
230
1.0
 70
     8
 71
     3
 72
     8
 73
     4
 74
     0
 42
0.0000000001
 43
0.0000000001
 40
0.0
 40
0.0
 40
0.0
 40
0.0
 40
1.0
 40
1.0
 40
1.0
 40
1.0
 10
-7.489800000000001
 20
42.4146
 30
0.0
 10
-7.489800000000001
 20
42.1418
 30
0.0
 10
-7.2712
 20
41.9194
 30
0.0
 10
-6.9985
 20
41.9147
 30
0.0
  0
SPLINE
  5
97
330
1F
100
AcDbEntity
  8
LC-012-007-KH--0
370
    13
100
AcDbSpline
210
0.0
220
0.0
230
1.0
 70
    24
 71
     3
 72
     8
 73
     4
 74
     0
 42
0.0000000001
 43
0.0000000001
 40
0.0
 40
0.0
 40
0.0
 40
0.0
 40
1.0
 40
1.0
 40
1.0
 40
1.0
 10
-7.489800000000001
 20
42.4146
 30
0.0
 10
-7.489800000000001
 20
42.4146
 30
0.0
 10
-7.489800000000001
 20
45.3924
 30
0.0
 10
-7.489800000000001
 20
45.3924
 30
0.0
  0
SPLINE
  5
98
330
1F
100
AcDbEntity
  8
LC-012-007-KH--0
370
    13
100
AcDbSpline
210
0.0
220
0.0
230
1.0
 70
     8
 71
     3
 72
    12
 73
     8
 74
     0
 42
0.0000000001
 43
0.0000000001
 40
0.0
 40
0.0
 40
0.0
 40
0.0
 40
0.5
 40
0.5
 40
0.5
 40
0.5
 40
1.0
 40
1.0
 40
1.0
 40
1.0
 10
-6.989800000000001
 20
45.8924
 30
0.0
 10
-7.122400000000001
 20
45.8924
 30
0.0
 10
-7.2495
 20
45.8397
 30
0.0
 10
-7.3433
 20
45.746
 30
0.0
 10
-7.3433
 20
45.746
 30
0.0
 10
-7.4371
 20
45.6522
 30
0.0
 10
-7.489800000000001
 20
45.52500000000001
 30
0.0
 10
-7.489800000000001
 20
45.3924
 30
0.0
  0
SPLINE
  5
99
330
1F
100
AcDbEntity
  8
LC-012-007-KH--0
370
    13
100
AcDbSpline
210
0.0
220
0.0
230
1.0
 70
    24
 71
     3
 72
     8
 73
     4
 74
     0
 42
0.0000000001
 43
0.0000000001
 40
0.0
 40
0.0
 40
0.0
 40
0.0
 40
1.0
 40
1.0
 40
1.0
 40
1.0
 10
-6.989800000000001
 20
45.8924
 30
0.0
 10
-6.989800000000001
 20
45.8924
 30
0.0
 10
-5.489800000000001
 20
45.8924
 30
0.0
 10
-5.489800000000001
 20
45.8924
 30
0.0
  0
SPLINE
  5
9A
330
1F
100
AcDbEntity
  8
LC-012-007-KH--0
370
    13
100
AcDbSpline
210
0.0
220
0.0
230
1.0
 70
    24
 71
     3
 72
     8
 73
     4
 74
     0
 42
0.0000000001
 43
0.0000000001
 40
0.0
 40
0.0
 40
0.0
 40
0.0
 40
1.0
 40
1.0
 40
1.0
 40
1.0
 10
-1.9888
 20
41.82720000000001
 30
0.0
 10
-1.9888
 20
41.82720000000001
 30
0.0
 10
-1.9888
 20
-15.7929
 30
0.0
 10
-1.9888
 20
-15.7929
 30
0.0
  0
SPLINE
  5
9B
330
1F
100
AcDbEntity
  8
LC-012-007-KH--0
370
    13
100
AcDbSpline
210
0.0
220
0.0
230
1.0
 70
    24
 71
     3
 72
     8
 73
     4
 74
     0
 42
0.0000000001
 43
0.0000000001
 40
0.0
 40
0.0
 40
0.0
 40
0.0
 40
1.0
 40
1.0
 40
1.0
 40
1.0
 10
-6.9985
 20
41.9147
 30
0.0
 10
-6.9985
 20
41.9147
 30
0.0
 10
-6.9985
 20
-15.8803
 30
0.0
 10
-6.9985
 20
-15.8803
 30
0.0
  0
SPLINE
  5
9C
330
1F
100
AcDbEntity
  8
LC-012-007-KH--0
370
    13
100
AcDbSpline
210
0.0
220
0.0
230
1.0
 70
    24
 71
     3
 72
     8
 73
     4
 74
     0
 42
0.0000000001
 43
0.0000000001
 40
0.0
 40
0.0
 40
0.0
 40
0.0
 40
1.0
 40
1.0
 40
1.0
 40
1.0
 10
-5.489800000000001
 20
45.5422
 30
0.0
 10
-5.489800000000001
 20
45.5422
 30
0.0
 10
-5.489800000000001
 20
45.0188
 30
0.0
 10
-5.489800000000001
 20
45.0188
 30
0.0
  0
SPLINE
  5
9D
330
1F
100
AcDbEntity
  8
LC-012-007-KH--0
370
    13
100
AcDbSpline
210
0.0
220
0.0
230
1.0
 70
    24
 71
     3
 72
     8
 73
     4
 74
     0
 42
0.0000000001
 43
0.0000000001
 40
0.0
 40
0.0
 40
0.0
 40
0.0
 40
1.0
 40
1.0
 40
1.0
 40
1.0
 10
-1.3398
 20
41.3346
 30
0.0
 10
-1.3398
 20
41.3346
 30
0.0
 10
-1.3398
 20
45.5422
 30
0.0
 10
-1.3398
 20
45.5422
 30
0.0
  0
SPLINE
  5
9E
330
1F
100
AcDbEntity
  8
LC-012-007-KH--0
370
    13
100
AcDbSpline
210
0.0
220
0.0
230
1.0
 70
    24
 71
     3
 72
     8
 73
     4
 74
     0
 42
0.0000000001
 43
0.0000000001
 40
0.0
 40
0.0
 40
0.0
 40
0.0
 40
1.0
 40
1.0
 40
1.0
 40
1.0
 10
-5.489800000000001
 20
-18.5244
 30
0.0
 10
-5.489800000000001
 20
-18.5244
 30
0.0
 10
-5.489800000000001
 20
-19.5081
 30
0.0
 10
-5.489800000000001
 20
-19.5081
 30
0.0
  0
SPLINE
  5
9F
330
1F
100
AcDbEntity
  8
LC-012-007-KH--0
370
    13
100
AcDbSpline
210
0.0
220
0.0
230
1.0
 70
    24
 71
     3
 72
     8
 73
     4
 74
     0
 42
0.0000000001
 43
0.0000000001
 40
0.0
 40
0.0
 40
0.0
 40
0.0
 40
1.0
 40
1.0
 40
1.0
 40
1.0
 10
-7.489800000000001
 20
42.4146
 30
0.0
 10
-7.489800000000001
 20
42.4146
 30
0.0
 10
-7.489800000000001
 20
-16.3802
 30
0.0
 10
-7.489800000000001
 20
-16.3802
 30
0.0
  0
SPLINE
  5
A0
330
1F
100
AcDbEntity
  8
LC-012-007-KH--0
370
    13
100
AcDbSpline
210
0.0
220
0.0
230
1.0
 70
    24
 71
     3
 72
     8
 73
     4
 74
     0
 42
0.0000000001
 43
0.0000000001
 40
0.0
 40
0.0
 40
0.0
 40
0.0
 40
1.0
 40
1.0
 40
1.0
 40
1.0
 10
-0.4898
 20
46.3922
 30
0.0
 10
-0.4898
 20
46.3922
 30
0.0
 10
-0.4898
 20
42.3069
 30
0.0
 10
-0.4898
 20
42.3069
 30
0.0
  0
SPLINE
  5
A1
330
1F
100
AcDbEntity
  8
LC-012-007-KH--0
370
    13
100
AcDbSpline
210
0.0
220
0.0
230
1.0
 70
    24
 71
     3
 72
     8
 73
     4
 74
     0
 42
0.0000000001
 43
0.0000000001
 40
0.0
 40
0.0
 40
0.0
 40
0.0
 40
1.0
 40
1.0
 40
1.0
 40
1.0
 10
-2.0403
 20
55.1172
 30
0.0
 10
-2.0403
 20
55.1172
 30
0.0
 10
-1.6714
 20
55.1172
 30
0.0
 10
-1.6714
 20
55.1172
 30
0.0
  0
SPLINE
  5
A2
330
1F
100
AcDbEntity
  8
LC-012-007-KH--0
370
    13
100
AcDbSpline
210
0.0
220
0.0
230
1.0
 70
    24
 71
     3
 72
     8
 73
     4
 74
     0
 42
0.0000000001
 43
0.0000000001
 40
0.0
 40
0.0
 40
0.0
 40
0.0
 40
1.0
 40
1.0
 40
1.0
 40
1.0
 10
-1.5352
 20
53.6172
 30
0.0
 10
-1.5352
 20
53.6172
 30
0.0
 10
-2.0403
 20
55.1172
 30
0.0
 10
-2.0403
 20
55.1172
 30
0.0
  0
SPLINE
  5
A3
330
1F
100
AcDbEntity
  8
LC-012-007-KH--0
370
    13
100
AcDbSpline
210
0.0
220
0.0
230
1.0
 70
    24
 71
     3
 72
     8
 73
     4
 74
     0
 42
0.0000000001
 43
0.0000000001
 40
0.0
 40
0.0
 40
0.0
 40
0.0
 40
1.0
 40
1.0
 40
1.0
 40
1.0
 10
-1.6714
 20
55.1172
 30
0.0
 10
-1.6714
 20
55.1172
 30
0.0
 10
-1.1666
 20
53.6172
 30
0.0
 10
-1.1666
 20
53.6172
 30
0.0
  0
SPLINE
  5
A4
330
1F
100
AcDbEntity
  8
LC-012-007-KH--0
370
    13
100
AcDbSpline
210
0.0
220
0.0
230
1.0
 70
     8
 71
     3
 72
     8
 73
     4
 74
     0
 42
0.0000000001
 43
0.0000000001
 40
0.0
 40
0.0
 40
0.0
 40
0.0
 40
1.0
 40
1.0
 40
1.0
 40
1.0
 10
-2.6196
 20
56.8374
 30
0.0
 10
-2.9073
 20
57.6918
 30
0.0
 10
-3.7082
 20
58.2672
 30
0.0
 10
-4.6098
 20
58.2672
 30
0.0
  0
SPLINE
  5
A5
330
1F
100
AcDbEntity
  8
LC-012-007-KH--0
370
    13
100
AcDbSpline
210
0.0
220
0.0
230
1.0
 70
    24
 71
     3
 72
     8
 73
     4
 74
     0
 42
0.0000000001
 43
0.0000000001
 40
0.0
 40
0.0
 40
0.0
 40
0.0
 40
1.0
 40
1.0
 40
1.0
 40
1.0
 10
-4.6098
 20
58.2672
 30
0.0
 10
-4.6098
 20
58.2672
 30
0.0
 10
-5.3098
 20
58.2672
 30
0.0
 10
-5.3098
 20
58.2672
 30
0.0
  0
SPLINE
  5
A6
330
1F
100
AcDbEntity
  8
LC-012-007-KH--0
370
    13
100
AcDbSpline
210
0.0
220
0.0
230
1.0
 70
     8
 71
     3
 72
    12
 73
     8
 74
     0
 42
0.0000000001
 43
0.0000000001
 40
0.0
 40
0.0
 40
0.0
 40
0.0
 40
0.5
 40
0.5
 40
0.5
 40
0.5
 40
1.0
 40
1.0
 40
1.0
 40
1.0
 10
-5.3098
 20
58.2672
 30
0.0
 10
-6.420900000000001
 20
58.2672
 30
0.0
 10
-7.3398
 20
57.4016
 30
0.0
 10
-7.406000000000001
 20
56.2924
 30
0.0
 10
-7.406000000000001
 20
56.2924
 30
0.0
 10
-7.472300000000001
 20
55.1832
 30
0.0
 10
-6.663
 20
54.21440000000001
 30
0.0
 10
-5.5598
 20
54.0821
 30
0.0
  0
SPLINE
  5
A7
330
1F
100
AcDbEntity
  8
LC-012-007-KH--0
370
    13
100
AcDbSpline
210
0.0
220
0.0
230
1.0
 70
     8
 71
     3
 72
    12
 73
     8
 74
     0
 42
0.0000000001
 43
0.0000000001
 40
0.0
 40
0.0
 40
0.0
 40
0.0
 40
0.5
 40
0.5
 40
0.5
 40
0.5
 40
1.0
 40
1.0
 40
1.0
 40
1.0
 10
-5.3098
 20
58.6172
 30
0.0
 10
-6.606500000000001
 20
58.6172
 30
0.0
 10
-7.6787
 20
57.6067
 30
0.0
 10
-7.755500000000001
 20
56.3122
 30
0.0
 10
-7.755500000000001
 20
56.3122
 30
0.0
 10
-7.8322
 20
55.0178
 30
0.0
 10
-6.887000000000001
 20
53.8876
 30
0.0
 10
-5.5994
 20
53.7344
 30
0.0
  0
SPLINE
  5
A8
330
1F
100
AcDbEntity
  8
LC-012-007-KH--0
370
    13
100
AcDbSpline
210
0.0
220
0.0
230
1.0
 70
    24
 71
     3
 72
     8
 73
     4
 74
     0
 42
0.0000000001
 43
0.0000000001
 40
0.0
 40
0.0
 40
0.0
 40
0.0
 40
1.0
 40
1.0
 40
1.0
 40
1.0
 10
-5.5598
 20
54.0821
 30
0.0
 10
-5.5598
 20
54.0821
 30
0.0
 10
-5.5994
 20
53.7344
 30
0.0
 10
-5.5994
 20
53.7344
 30
0.0
  0
SPLINE
  5
A9
330
1F
100
AcDbEntity
  8
LC-012-007-KH--0
370
    13
100
AcDbSpline
210
0.0
220
0.0
230
1.0
 70
     8
 71
     3
 72
     8
 73
     4
 74
     0
 42
0.0000000001
 43
0.0000000001
 40
0.0
 40
0.0
 40
0.0
 40
0.0
 40
1.0
 40
1.0
 40
1.0
 40
1.0
 10
-2.2877
 20
56.94860000000001
 30
0.0
 10
-2.6233
 20
57.94560000000001
 30
0.0
 10
-3.5578
 20
58.6172
 30
0.0
 10
-4.6098
 20
58.6172
 30
0.0
  0
SPLINE
  5
AA
330
1F
100
AcDbEntity
  8
LC-012-007-KH--0
370
    13
100
AcDbSpline
210
0.0
220
0.0
230
1.0
 70
    24
 71
     3
 72
     8
 73
     4
 74
     0
 42
0.0000000001
 43
0.0000000001
 40
0.0
 40
0.0
 40
0.0
 40
0.0
 40
1.0
 40
1.0
 40
1.0
 40
1.0
 10
-4.6098
 20
58.6172
 30
0.0
 10
-4.6098
 20
58.6172
 30
0.0
 10
-5.3098
 20
58.6172
 30
0.0
 10
-5.3098
 20
58.6172
 30
0.0
  0
SPLINE
  5
AB
330
1F
100
AcDbEntity
  8
LC-012-007-KH--0
370
    13
100
AcDbSpline
210
0.0
220
0.0
230
1.0
 70
    24
 71
     3
 72
     8
 73
     4
 74
     0
 42
0.0000000001
 43
0.0000000001
 40
0.0
 40
0.0
 40
0.0
 40
0.0
 40
1.0
 40
1.0
 40
1.0
 40
1.0
 10
-2.0403
 20
55.1172
 30
0.0
 10
-2.0403
 20
55.1172
 30
0.0
 10
-2.6196
 20
56.8374
 30
0.0
 10
-2.6196
 20
56.8374
 30
0.0
  0
SPLINE
  5
AC
330
1F
100
AcDbEntity
  8
LC-012-007-KH--0
370
    13
100
AcDbSpline
210
0.0
220
0.0
230
1.0
 70
    24
 71
     3
 72
     8
 73
     4
 74
     0
 42
0.0000000001
 43
0.0000000001
 40
0.0
 40
0.0
 40
0.0
 40
0.0
 40
1.0
 40
1.0
 40
1.0
 40
1.0
 10
-2.2877
 20
56.94860000000001
 30
0.0
 10
-2.2877
 20
56.94860000000001
 30
0.0
 10
-1.6714
 20
55.1172
 30
0.0
 10
-1.6714
 20
55.1172
 30
0.0
  0
SPLINE
  5
AD
330
1F
100
AcDbEntity
  8
LC-012-007-KH--0
370
    13
100
AcDbSpline
210
0.0
220
0.0
230
1.0
 70
     8
 71
     3
 72
     8
 73
     4
 74
     0
 42
0.0000000001
 43
0.0000000001
 40
0.0
 40
0.0
 40
0.0
 40
0.0
 40
1.0
 40
1.0
 40
1.0
 40
1.0
 10
2.967
 20
28.8593
 30
0.0
 10
3.2907
 20
28.9789
 30
0.0
 10
3.4562
 20
29.3384
 30
0.0
 10
3.3365
 20
29.6622
 30
0.0
  0
SPLINE
  5
AE
330
1F
100
AcDbEntity
  8
LC-012-007-KH--0
370
    13
100
AcDbSpline
210
0.0
220
0.0
230
1.0
 70
    24
 71
     3
 72
     8
 73
     4
 74
     0
 42
0.0000000001
 43
0.0000000001
 40
0.0
 40
0.0
 40
0.0
 40
0.0
 40
1.0
 40
1.0
 40
1.0
 40
1.0
 10
2.967
 20
28.8593
 30
0.0
 10
2.967
 20
28.8593
 30
0.0
 10
2.8966
 20
28.8332
 30
0.0
 10
2.8966
 20
28.8332
 30
0.0
  0
SPLINE
  5
AF
330
1F
100
AcDbEntity
  8
LC-012-007-KH--0
370
    13
100
AcDbSpline
210
0.0
220
0.0
230
1.0
 70
    24
 71
     3
 72
     8
 73
     4
 74
     0
 42
0.0000000001
 43
0.0000000001
 40
0.0
 40
0.0
 40
0.0
 40
0.0
 40
1.0
 40
1.0
 40
1.0
 40
1.0
 10
2.8966
 20
28.8332
 30
0.0
 10
2.8966
 20
28.8332
 30
0.0
 10
2.4112
 20
30.1464
 30
0.0
 10
2.4112
 20
30.1464
 30
0.0
  0
SPLINE
  5
B0
330
1F
100
AcDbEntity
  8
LC-012-007-KH--0
370
    13
100
AcDbSpline
210
0.0
220
0.0
230
1.0
 70
    24
 71
     3
 72
     8
 73
     4
 74
     0
 42
0.0000000001
 43
0.0000000001
 40
0.0
 40
0.0
 40
0.0
 40
0.0
 40
1.0
 40
1.0
 40
1.0
 40
1.0
 10
2.4112
 20
30.1464
 30
0.0
 10
2.4112
 20
30.1464
 30
0.0
 10
2.4815
 20
30.1724
 30
0.0
 10
2.4815
 20
30.1724
 30
0.0
  0
SPLINE
  5
B1
330
1F
100
AcDbEntity
  8
LC-012-007-KH--0
370
    13
100
AcDbSpline
210
0.0
220
0.0
230
1.0
 70
     8
 71
     3
 72
    12
 73
     8
 74
     0
 42
0.0000000001
 43
0.0000000001
 40
0.0
 40
0.0
 40
0.0
 40
0.0
 40
0.5
 40
0.5
 40
0.5
 40
0.5
 40
1.0
 40
1.0
 40
1.0
 40
1.0
 10
3.2845
 20
29.8029
 30
0.0
 10
3.227
 20
29.9584
 30
0.0
 10
3.1101
 20
30.0846
 30
0.0
 10
2.9595
 20
30.1539
 30
0.0
 10
2.9595
 20
30.1539
 30
0.0
 10
2.8089
 20
30.2232
 30
0.0
 10
2.637
 20
30.2299
 30
0.0
 10
2.4815
 20
30.1724
 30
0.0
  0
SPLINE
  5
B2
330
1F
100
AcDbEntity
  8
LC-012-007-KH--0
370
    13
100
AcDbSpline
210
0.0
220
0.0
230
1.0
 70
    24
 71
     3
 72
     8
 73
     4
 74
     0
 42
0.0000000001
 43
0.0000000001
 40
0.0
 40
0.0
 40
0.0
 40
0.0
 40
1.0
 40
1.0
 40
1.0
 40
1.0
 10
3.2845
 20
29.8029
 30
0.0
 10
3.2845
 20
29.8029
 30
0.0
 10
3.3365
 20
29.6622
 30
0.0
 10
3.3365
 20
29.6622
 30
0.0
  0
SPLINE
  5
B3
330
1F
100
AcDbEntity
  8
LC-012-007-KH--0
370
    13
100
AcDbSpline
210
0.0
220
0.0
230
1.0
 70
    24
 71
     3
 72
     8
 73
     4
 74
     0
 42
0.0000000001
 43
0.0000000001
 40
0.0
 40
0.0
 40
0.0
 40
0.0
 40
1.0
 40
1.0
 40
1.0
 40
1.0
 10
-3.2222
 20
-24.7528
 30
0.0
 10
-3.2222
 20
-24.7528
 30
0.0
 10
-13.0598
 20
-24.7528
 30
0.0
 10
-13.0598
 20
-24.7528
 30
0.0
  0
SPLINE
  5
B4
330
1F
100
AcDbEntity
  8
LC-012-007-KH--0
370
    13
100
AcDbSpline
210
0.0
220
0.0
230
1.0
 70
    24
 71
     3
 72
     8
 73
     4
 74
     0
 42
0.0000000001
 43
0.0000000001
 40
0.0
 40
0.0
 40
0.0
 40
0.0
 40
1.0
 40
1.0
 40
1.0
 40
1.0
 10
-3.1895
 20
-22.8778
 30
0.0
 10
-3.1895
 20
-22.8778
 30
0.0
 10
-3.2222
 20
-24.7528
 30
0.0
 10
-3.2222
 20
-24.7528
 30
0.0
  0
SPLINE
  5
B5
330
1F
100
AcDbEntity
  8
LC-012-007-KH--0
370
    13
100
AcDbSpline
210
0.0
220
0.0
230
1.0
 70
     8
 71
     3
 72
    12
 73
     8
 74
     0
 42
0.0000000001
 43
0.0000000001
 40
0.0
 40
0.0
 40
0.0
 40
0.0
 40
0.5
 40
0.5
 40
0.5
 40
0.5
 40
1.0
 40
1.0
 40
1.0
 40
1.0
 10
-14.0598
 20
-23.7528
 30
0.0
 10
-14.0598
 20
-24.018
 30
0.0
 10
-13.9544
 20
-24.2724
 30
0.0
 10
-13.7669
 20
-24.4599
 30
0.0
 10
-13.7669
 20
-24.4599
 30
0.0
 10
-13.5793
 20
-24.6475
 30
0.0
 10
-13.325
 20
-24.7528
 30
0.0
 10
-13.0598
 20
-24.7528
 30
0.0
  0
SPLINE
  5
B6
330
1F
100
AcDbEntity
  8
LC-012-007-KH--0
370
    13
100
AcDbSpline
210
0.0
220
0.0
230
1.0
 70
    24
 71
     3
 72
     8
 73
     4
 74
     0
 42
0.0000000001
 43
0.0000000001
 40
0.0
 40
0.0
 40
0.0
 40
0.0
 40
1.0
 40
1.0
 40
1.0
 40
1.0
 10
-14.0598
 20
-23.7528
 30
0.0
 10
-14.0598
 20
-23.7528
 30
0.0
 10
-14.0598
 20
-23.3778
 30
0.0
 10
-14.0598
 20
-23.3778
 30
0.0
  0
SPLINE
  5
B7
330
1F
100
AcDbEntity
  8
LC-012-007-KH--0
370
    13
100
AcDbSpline
210
0.0
220
0.0
230
1.0
 70
    24
 71
     3
 72
     8
 73
     4
 74
     0
 42
0.0000000001
 43
0.0000000001
 40
0.0
 40
0.0
 40
0.0
 40
0.0
 40
1.0
 40
1.0
 40
1.0
 40
1.0
 10
-14.0598
 20
-23.3778
 30
0.0
 10
-14.0598
 20
-23.3778
 30
0.0
 10
-10.5598
 20
-23.3778
 30
0.0
 10
-10.5598
 20
-23.3778
 30
0.0
  0
SPLINE
  5
B8
330
1F
100
AcDbEntity
  8
LC-012-007-KH--0
370
    13
100
AcDbSpline
210
0.0
220
0.0
230
1.0
 70
    24
 71
     3
 72
     8
 73
     4
 74
     0
 42
0.0000000001
 43
0.0000000001
 40
0.0
 40
0.0
 40
0.0
 40
0.0
 40
1.0
 40
1.0
 40
1.0
 40
1.0
 10
-10.5598
 20
-23.3778
 30
0.0
 10
-10.5598
 20
-23.3778
 30
0.0
 10
-10.5598
 20
-22.2528
 30
0.0
 10
-10.5598
 20
-22.2528
 30
0.0
  0
SPLINE
  5
B9
330
1F
100
AcDbEntity
  8
LC-012-007-KH--0
370
    13
100
AcDbSpline
210
0.0
220
0.0
230
1.0
 70
    24
 71
     3
 72
     8
 73
     4
 74
     0
 42
0.0000000001
 43
0.0000000001
 40
0.0
 40
0.0
 40
0.0
 40
0.0
 40
1.0
 40
1.0
 40
1.0
 40
1.0
 10
-10.5598
 20
-22.2528
 30
0.0
 10
-10.5598
 20
-22.2528
 30
0.0
 10
-12.0598
 20
-22.2528
 30
0.0
 10
-12.0598
 20
-22.2528
 30
0.0
  0
SPLINE
  5
BA
330
1F
100
AcDbEntity
  8
LC-012-007-KH--0
370
    13
100
AcDbSpline
210
0.0
220
0.0
230
1.0
 70
    24
 71
     3
 72
     8
 73
     4
 74
     0
 42
0.0000000001
 43
0.0000000001
 40
0.0
 40
0.0
 40
0.0
 40
0.0
 40
1.0
 40
1.0
 40
1.0
 40
1.0
 10
-12.0598
 20
-22.2528
 30
0.0
 10
-12.0598
 20
-22.2528
 30
0.0
 10
-12.0598
 20
-21.2528
 30
0.0
 10
-12.0598
 20
-21.2528
 30
0.0
  0
SPLINE
  5
BB
330
1F
100
AcDbEntity
  8
LC-012-007-KH--0
370
    13
100
AcDbSpline
210
0.0
220
0.0
230
1.0
 70
    24
 71
     3
 72
     8
 73
     4
 74
     0
 42
0.0000000001
 43
0.0000000001
 40
0.0
 40
0.0
 40
0.0
 40
0.0
 40
1.0
 40
1.0
 40
1.0
 40
1.0
 10
-12.0598
 20
-21.2528
 30
0.0
 10
-12.0598
 20
-21.2528
 30
0.0
 10
-8.809800000000001
 20
-21.2528
 30
0.0
 10
-8.809800000000001
 20
-21.2528
 30
0.0
  0
SPLINE
  5
BC
330
1F
100
AcDbEntity
  8
LC-012-007-KH--0
370
    13
100
AcDbSpline
210
0.0
220
0.0
230
1.0
 70
    24
 71
     3
 72
     8
 73
     4
 74
     0
 42
0.0000000001
 43
0.0000000001
 40
0.0
 40
0.0
 40
0.0
 40
0.0
 40
1.0
 40
1.0
 40
1.0
 40
1.0
 10
-8.809800000000001
 20
-21.2528
 30
0.0
 10
-8.809800000000001
 20
-21.2528
 30
0.0
 10
-5.995200000000001
 20
-22.8778
 30
0.0
 10
-5.995200000000001
 20
-22.8778
 30
0.0
  0
SPLINE
  5
BD
330
1F
100
AcDbEntity
  8
LC-012-007-KH--0
370
    13
100
AcDbSpline
210
0.0
220
0.0
230
1.0
 70
    24
 71
     3
 72
     8
 73
     4
 74
     0
 42
0.0000000001
 43
0.0000000001
 40
0.0
 40
0.0
 40
0.0
 40
0.0
 40
1.0
 40
1.0
 40
1.0
 40
1.0
 10
-5.995200000000001
 20
-22.8778
 30
0.0
 10
-5.995200000000001
 20
-22.8778
 30
0.0
 10
-3.1895
 20
-22.8778
 30
0.0
 10
-3.1895
 20
-22.8778
 30
0.0
  0
SPLINE
  5
BE
330
1F
100
AcDbEntity
  8
LC-012-007-KH--0
370
    13
100
AcDbSpline
210
0.0
220
0.0
230
1.0
 70
    24
 71
     3
 72
     8
 73
     4
 74
     0
 42
0.0000000001
 43
0.0000000001
 40
0.0
 40
0.0
 40
0.0
 40
0.0
 40
1.0
 40
1.0
 40
1.0
 40
1.0
 10
-10.5598
 20
49.8722
 30
0.0
 10
-10.5598
 20
49.8722
 30
0.0
 10
-14.0598
 20
49.8722
 30
0.0
 10
-14.0598
 20
49.8722
 30
0.0
  0
SPLINE
  5
BF
330
1F
100
AcDbEntity
  8
LC-012-007-KH--0
370
    13
100
AcDbSpline
210
0.0
220
0.0
230
1.0
 70
    24
 71
     3
 72
     8
 73
     4
 74
     0
 42
0.0000000001
 43
0.0000000001
 40
0.0
 40
0.0
 40
0.0
 40
0.0
 40
1.0
 40
1.0
 40
1.0
 40
1.0
 10
-8.809800000000001
 20
47.7472
 30
0.0
 10
-8.809800000000001
 20
47.7472
 30
0.0
 10
-8.809800000000001
 20
46.7625
 30
0.0
 10
-8.809800000000001
 20
46.7625
 30
0.0
  0
SPLINE
  5
C0
330
1F
100
AcDbEntity
  8
LC-012-007-KH--0
370
    13
100
AcDbSpline
210
0.0
220
0.0
230
1.0
 70
    24
 71
     3
 72
     8
 73
     4
 74
     0
 42
0.0000000001
 43
0.0000000001
 40
0.0
 40
0.0
 40
0.0
 40
0.0
 40
1.0
 40
1.0
 40
1.0
 40
1.0
 10
-8.809800000000001
 20
-20.2681
 30
0.0
 10
-8.809800000000001
 20
-20.2681
 30
0.0
 10
-8.809800000000001
 20
-21.2528
 30
0.0
 10
-8.809800000000001
 20
-21.2528
 30
0.0
  0
SPLINE
  5
C1
330
1F
100
AcDbEntity
  8
LC-012-007-KH--0
370
    13
100
AcDbSpline
210
0.0
220
0.0
230
1.0
 70
    24
 71
     3
 72
     8
 73
     4
 74
     0
 42
0.0000000001
 43
0.0000000001
 40
0.0
 40
0.0
 40
0.0
 40
0.0
 40
1.0
 40
1.0
 40
1.0
 40
1.0
 10
-5.995200000000001
 20
49.3722
 30
0.0
 10
-5.995200000000001
 20
49.3722
 30
0.0
 10
-8.809800000000001
 20
47.7472
 30
0.0
 10
-8.809800000000001
 20
47.7472
 30
0.0
  0
SPLINE
  5
C2
330
1F
100
AcDbEntity
  8
LC-012-007-KH--0
370
    13
100
AcDbSpline
210
0.0
220
0.0
230
1.0
 70
    24
 71
     3
 72
     8
 73
     4
 74
     0
 42
0.0000000001
 43
0.0000000001
 40
0.0
 40
0.0
 40
0.0
 40
0.0
 40
1.0
 40
1.0
 40
1.0
 40
1.0
 10
-5.995200000000001
 20
49.3722
 30
0.0
 10
-5.995200000000001
 20
49.3722
 30
0.0
 10
-5.995200000000001
 20
48.3875
 30
0.0
 10
-5.995200000000001
 20
48.3875
 30
0.0
  0
SPLINE
  5
C3
330
1F
100
AcDbEntity
  8
LC-012-007-KH--0
370
    13
100
AcDbSpline
210
0.0
220
0.0
230
1.0
 70
    24
 71
     3
 72
     8
 73
     4
 74
     0
 42
0.0000000001
 43
0.0000000001
 40
0.0
 40
0.0
 40
0.0
 40
0.0
 40
1.0
 40
1.0
 40
1.0
 40
1.0
 10
-5.995200000000001
 20
-21.8931
 30
0.0
 10
-5.995200000000001
 20
-21.8931
 30
0.0
 10
-5.995200000000001
 20
-22.8778
 30
0.0
 10
-5.995200000000001
 20
-22.8778
 30
0.0
  0
SPLINE
  5
C4
330
1F
100
AcDbEntity
  8
LC-012-007-KH--0
370
    13
100
AcDbSpline
210
0.0
220
0.0
230
1.0
 70
    24
 71
     3
 72
     8
 73
     4
 74
     0
 42
0.0000000001
 43
0.0000000001
 40
0.0
 40
0.0
 40
0.0
 40
0.0
 40
1.0
 40
1.0
 40
1.0
 40
1.0
 10
-1.9284
 20
49.3722
 30
0.0
 10
-1.9284
 20
49.3722
 30
0.0
 10
-5.995200000000001
 20
49.3722
 30
0.0
 10
-5.995200000000001
 20
49.3722
 30
0.0
  0
SPLINE
  5
C5
330
1F
100
AcDbEntity
  8
LC-012-007-KH--0
370
    13
100
AcDbSpline
210
0.0
220
0.0
230
1.0
 70
    24
 71
     3
 72
     8
 73
     4
 74
     0
 42
0.0000000001
 43
0.0000000001
 40
0.0
 40
0.0
 40
0.0
 40
0.0
 40
1.0
 40
1.0
 40
1.0
 40
1.0
 10
-1.9891
 20
45.8922
 30
0.0
 10
-1.9891
 20
45.8922
 30
0.0
 10
-1.9284
 20
49.3722
 30
0.0
 10
-1.9284
 20
49.3722
 30
0.0
  0
SPLINE
  5
C6
330
1F
100
AcDbEntity
  8
LC-012-007-KH--0
370
    13
100
AcDbSpline
210
0.0
220
0.0
230
1.0
 70
    24
 71
     3
 72
     8
 73
     4
 74
     0
 42
0.0000000001
 43
0.0000000001
 40
0.0
 40
0.0
 40
0.0
 40
0.0
 40
1.0
 40
1.0
 40
1.0
 40
1.0
 10
-12.0598
 20
48.7472
 30
0.0
 10
-12.0598
 20
48.7472
 30
0.0
 10
-10.5598
 20
48.7472
 30
0.0
 10
-10.5598
 20
48.7472
 30
0.0
  0
SPLINE
  5
C7
330
1F
100
AcDbEntity
  8
LC-012-007-KH--0
370
    13
100
AcDbSpline
210
0.0
220
0.0
230
1.0
 70
    24
 71
     3
 72
     8
 73
     4
 74
     0
 42
0.0000000001
 43
0.0000000001
 40
0.0
 40
0.0
 40
0.0
 40
0.0
 40
1.0
 40
1.0
 40
1.0
 40
1.0
 10
-8.809800000000001
 20
47.7472
 30
0.0
 10
-8.809800000000001
 20
47.7472
 30
0.0
 10
-12.0598
 20
47.7472
 30
0.0
 10
-12.0598
 20
47.7472
 30
0.0
  0
SPLINE
  5
C8
330
1F
100
AcDbEntity
  8
LC-012-007-KH--0
370
    13
100
AcDbSpline
210
0.0
220
0.0
230
1.0
 70
     8
 71
     3
 72
    12
 73
     8
 74
     0
 42
0.0000000001
 43
0.0000000001
 40
0.0
 40
0.0
 40
0.0
 40
0.0
 40
0.5
 40
0.5
 40
0.5
 40
0.5
 40
1.0
 40
1.0
 40
1.0
 40
1.0
 10
-9.559800000000001
 20
58.4972
 30
0.0
 10
-9.559800000000001
 20
58.56350000000001
 30
0.0
 10
-9.5861
 20
58.62710000000001
 30
0.0
 10
-9.633000000000001
 20
58.674
 30
0.0
 10
-9.633000000000001
 20
58.674
 30
0.0
 10
-9.6799
 20
58.7208
 30
0.0
 10
-9.743500000000001
 20
58.7472
 30
0.0
 10
-9.809800000000001
 20
58.7472
 30
0.0
  0
SPLINE
  5
C9
330
1F
100
AcDbEntity
  8
LC-012-007-KH--0
370
    13
100
AcDbSpline
210
0.0
220
0.0
230
1.0
 70
    24
 71
     3
 72
     8
 73
     4
 74
     0
 42
0.0000000001
 43
0.0000000001
 40
0.0
 40
0.0
 40
0.0
 40
0.0
 40
1.0
 40
1.0
 40
1.0
 40
1.0
 10
-9.559800000000001
 20
57.2472
 30
0.0
 10
-9.559800000000001
 20
57.2472
 30
0.0
 10
-9.559800000000001
 20
58.4972
 30
0.0
 10
-9.559800000000001
 20
58.4972
 30
0.0
  0
SPLINE
  5
CA
330
1F
100
AcDbEntity
  8
LC-012-007-KH--0
370
    13
100
AcDbSpline
210
0.0
220
0.0
230
1.0
 70
     8
 71
     3
 72
     8
 73
     4
 74
     0
 42
0.0000000001
 43
0.0000000001
 40
0.0
 40
0.0
 40
0.0
 40
0.0
 40
1.0
 40
1.0
 40
1.0
 40
1.0
 10
-9.809800000000001
 20
56.9972
 30
0.0
 10
-9.671700000000001
 20
56.9972
 30
0.0
 10
-9.559800000000001
 20
57.10910000000001
 30
0.0
 10
-9.559800000000001
 20
57.2472
 30
0.0
  0
SPLINE
  5
CB
330
1F
100
AcDbEntity
  8
LC-012-007-KH--0
370
    13
100
AcDbSpline
210
0.0
220
0.0
230
1.0
 70
    24
 71
     3
 72
     8
 73
     4
 74
     0
 42
0.0000000001
 43
0.0000000001
 40
0.0
 40
0.0
 40
0.0
 40
0.0
 40
1.0
 40
1.0
 40
1.0
 40
1.0
 10
-12.1598
 20
56.9972
 30
0.0
 10
-12.1598
 20
56.9972
 30
0.0
 10
-9.809800000000001
 20
56.9972
 30
0.0
 10
-9.809800000000001
 20
56.9972
 30
0.0
  0
SPLINE
  5
CC
330
1F
100
AcDbEntity
  8
LC-012-007-KH--0
370
    13
100
AcDbSpline
210
0.0
220
0.0
230
1.0
 70
    24
 71
     3
 72
     8
 73
     4
 74
     0
 42
0.0000000001
 43
0.0000000001
 40
0.0
 40
0.0
 40
0.0
 40
0.0
 40
1.0
 40
1.0
 40
1.0
 40
1.0
 10
-12.1598
 20
56.9972
 30
0.0
 10
-12.1598
 20
56.9972
 30
0.0
 10
-12.1598
 20
51.2472
 30
0.0
 10
-12.1598
 20
51.2472
 30
0.0
  0
SPLINE
  5
CD
330
1F
100
AcDbEntity
  8
LC-012-007-KH--0
370
    13
100
AcDbSpline
210
0.0
220
0.0
230
1.0
 70
    24
 71
     3
 72
     8
 73
     4
 74
     0
 42
0.0000000001
 43
0.0000000001
 40
0.0
 40
0.0
 40
0.0
 40
0.0
 40
1.0
 40
1.0
 40
1.0
 40
1.0
 10
-1.8956
 20
51.2472
 30
0.0
 10
-1.8956
 20
51.2472
 30
0.0
 10
-12.1598
 20
51.2472
 30
0.0
 10
-12.1598
 20
51.2472
 30
0.0
  0
SPLINE
  5
CE
330
1F
100
AcDbEntity
  8
LC-012-007-KH--0
370
    13
100
AcDbSpline
210
0.0
220
0.0
230
1.0
 70
    24
 71
     3
 72
     8
 73
     4
 74
     0
 42
0.0000000001
 43
0.0000000001
 40
0.0
 40
0.0
 40
0.0
 40
0.0
 40
1.0
 40
1.0
 40
1.0
 40
1.0
 10
-9.809800000000001
 20
58.7472
 30
0.0
 10
-9.809800000000001
 20
58.7472
 30
0.0
 10
-14.0598
 20
58.7472
 30
0.0
 10
-14.0598
 20
58.7472
 30
0.0
  0
SPLINE
  5
CF
330
1F
100
AcDbEntity
  8
LC-012-007-KH--0
370
    13
100
AcDbSpline
210
0.0
220
0.0
230
1.0
 70
    24
 71
     3
 72
     8
 73
     4
 74
     0
 42
0.0000000001
 43
0.0000000001
 40
0.0
 40
0.0
 40
0.0
 40
0.0
 40
1.0
 40
1.0
 40
1.0
 40
1.0
 10
-12.0598
 20
47.7472
 30
0.0
 10
-12.0598
 20
47.7472
 30
0.0
 10
-12.0598
 20
48.7472
 30
0.0
 10
-12.0598
 20
48.7472
 30
0.0
  0
SPLINE
  5
D0
330
1F
100
AcDbEntity
  8
LC-012-007-KH--0
370
    13
100
AcDbSpline
210
0.0
220
0.0
230
1.0
 70
    24
 71
     3
 72
     8
 73
     4
 74
     0
 42
0.0000000001
 43
0.0000000001
 40
0.0
 40
0.0
 40
0.0
 40
0.0
 40
1.0
 40
1.0
 40
1.0
 40
1.0
 10
-10.5598
 20
48.7472
 30
0.0
 10
-10.5598
 20
48.7472
 30
0.0
 10
-10.5598
 20
49.8722
 30
0.0
 10
-10.5598
 20
49.8722
 30
0.0
  0
SPLINE
  5
D1
330
1F
100
AcDbEntity
  8
LC-012-007-KH--0
370
    13
100
AcDbSpline
210
0.0
220
0.0
230
1.0
 70
    24
 71
     3
 72
     8
 73
     4
 74
     0
 42
0.0000000001
 43
0.0000000001
 40
0.0
 40
0.0
 40
0.0
 40
0.0
 40
1.0
 40
1.0
 40
1.0
 40
1.0
 10
-1.8956
 20
51.2472
 30
0.0
 10
-1.8956
 20
51.2472
 30
0.0
 10
-1.9284
 20
49.3722
 30
0.0
 10
-1.9284
 20
49.3722
 30
0.0
  0
SPLINE
  5
D2
330
1F
100
AcDbEntity
  8
LC-012-007-KH--0
370
    13
100
AcDbSpline
210
0.0
220
0.0
230
1.0
 70
    24
 71
     3
 72
     8
 73
     4
 74
     0
 42
0.0000000001
 43
0.0000000001
 40
0.0
 40
0.0
 40
0.0
 40
0.0
 40
1.0
 40
1.0
 40
1.0
 40
1.0
 10
-14.0598
 20
49.8722
 30
0.0
 10
-14.0598
 20
49.8722
 30
0.0
 10
-14.0598
 20
58.7472
 30
0.0
 10
-14.0598
 20
58.7472
 30
0.0
  0
SPLINE
  5
D3
330
1F
100
AcDbEntity
  8
LC-012-007-KH--0
370
    13
100
AcDbSpline
210
0.0
220
0.0
230
1.0
 70
    24
 71
     3
 72
     8
 73
     4
 74
     0
 42
0.0000000001
 43
0.0000000001
 40
0.0
 40
0.0
 40
0.0
 40
0.0
 40
1.0
 40
1.0
 40
1.0
 40
1.0
 10
-9.809800000000001
 20
51.2472
 30
0.0
 10
-9.809800000000001
 20
51.2472
 30
0.0
 10
-9.809800000000001
 20
56.9972
 30
0.0
 10
-9.809800000000001
 20
56.9972
 30
0.0
  0
SPLINE
  5
D4
330
1F
100
AcDbEntity
  8
LC-012-007-KH--0
370
    13
100
AcDbSpline
210
0.0
220
0.0
230
1.0
 70
     8
 71
     3
 72
    12
 73
     8
 74
     0
 42
0.0000000001
 43
0.0000000001
 40
0.0
 40
0.0
 40
0.0
 40
0.0
 40
0.5
 40
0.5
 40
0.5
 40
0.5
 40
1.0
 40
1.0
 40
1.0
 40
1.0
 10
-7.117
 20
58.7472
 30
0.0
 10
-8.242900000000001
 20
57.9585
 30
0.0
 10
-8.727400000000001
 20
56.5307
 30
0.0
 10
-8.3139
 20
55.2197
 30
0.0
 10
-8.3139
 20
55.2197
 30
0.0
 10
-7.9004
 20
53.9086
 30
0.0
 10
-6.6844
 20
53.0172
 30
0.0
 10
-5.3098
 20
53.0172
 30
0.0
  0
SPLINE
  5
D5
330
1F
100
AcDbEntity
  8
LC-012-007-KH--0
370
    13
100
AcDbSpline
210
0.0
220
0.0
230
1.0
 70
    24
 71
     3
 72
     8
 73
     4
 74
     0
 42
0.0000000001
 43
0.0000000001
 40
0.0
 40
0.0
 40
0.0
 40
0.0
 40
1.0
 40
1.0
 40
1.0
 40
1.0
 10
-5.3098
 20
53.0172
 30
0.0
 10
-5.3098
 20
53.0172
 30
0.0
 10
-4.0598
 20
53.0172
 30
0.0
 10
-4.0598
 20
53.0172
 30
0.0
  0
SPLINE
  5
D6
330
1F
100
AcDbEntity
  8
LC-012-007-KH--0
370
    13
100
AcDbSpline
210
0.0
220
0.0
230
1.0
 70
    24
 71
     3
 72
     8
 73
     4
 74
     0
 42
0.0000000001
 43
0.0000000001
 40
0.0
 40
0.0
 40
0.0
 40
0.0
 40
1.0
 40
1.0
 40
1.0
 40
1.0
 10
-2.499
 20
51.4564
 30
0.0
 10
-2.499
 20
51.4564
 30
0.0
 10
-4.0598
 20
53.0172
 30
0.0
 10
-4.0598
 20
53.0172
 30
0.0
  0
SPLINE
  5
D7
330
1F
100
AcDbEntity
  8
LC-012-007-KH--0
370
    13
100
AcDbSpline
210
0.0
220
0.0
230
1.0
 70
     8
 71
     3
 72
    12
 73
     8
 74
     0
 42
0.0000000001
 43
0.0000000001
 40
0.0
 40
0.0
 40
0.0
 40
0.0
 40
0.5
 40
0.5
 40
0.5
 40
0.5
 40
1.0
 40
1.0
 40
1.0
 40
1.0
 10
-2.3632
 20
51.2472
 30
0.0
 10
-2.3632
 20
51.2472
 30
0.0
 10
-2.4209
 20
51.3647
 30
0.0
 10
-2.4209
 20
51.3647
 30
0.0
 10
-2.4209
 20
51.3647
 30
0.0
 10
-2.4209
 20
51.3647
 30
0.0
 10
-2.499
 20
51.4564
 30
0.0
 10
-2.499
 20
51.4564
 30
0.0
  0
SPLINE
  5
D8
330
1F
100
AcDbEntity
  8
LC-012-007-KH--0
370
    13
100
AcDbSpline
210
0.0
220
0.0
230
1.0
 70
    24
 71
     3
 72
     8
 73
     4
 74
     0
 42
0.0000000001
 43
0.0000000001
 40
0.0
 40
0.0
 40
0.0
 40
0.0
 40
1.0
 40
1.0
 40
1.0
 40
1.0
 10
-9.809800000000001
 20
58.7472
 30
0.0
 10
-9.809800000000001
 20
58.7472
 30
0.0
 10
-7.117
 20
58.7472
 30
0.0
 10
-7.117
 20
58.7472
 30
0.0
  0
SPLINE
  5
D9
330
1F
100
AcDbEntity
  8
LC-012-007-KH--0
370
    13
100
AcDbSpline
210
0.0
220
0.0
230
1.0
 70
    24
 71
     3
 72
     8
 73
     4
 74
     0
 42
0.0000000001
 43
0.0000000001
 40
0.0
 40
0.0
 40
0.0
 40
0.0
 40
1.0
 40
1.0
 40
1.0
 40
1.0
 10
-12.0598
 20
59.66220000000001
 30
0.0
 10
-12.0598
 20
59.66220000000001
 30
0.0
 10
-6.5598
 20
59.66220000000001
 30
0.0
 10
-6.5598
 20
59.66220000000001
 30
0.0
  0
SPLINE
  5
DA
330
1F
100
AcDbEntity
  8
LC-012-007-KH--0
370
    13
100
AcDbSpline
210
0.0
220
0.0
230
1.0
 70
    24
 71
     3
 72
     8
 73
     4
 74
     0
 42
0.0000000001
 43
0.0000000001
 40
0.0
 40
0.0
 40
0.0
 40
0.0
 40
1.0
 40
1.0
 40
1.0
 40
1.0
 10
-6.5598
 20
59.0585
 30
0.0
 10
-6.5598
 20
59.0585
 30
0.0
 10
-6.5598
 20
59.66220000000001
 30
0.0
 10
-6.5598
 20
59.66220000000001
 30
0.0
  0
SPLINE
  5
DB
330
1F
100
AcDbEntity
  8
LC-012-007-KH--0
370
    13
100
AcDbSpline
210
0.0
220
0.0
230
1.0
 70
     8
 71
     3
 72
     8
 73
     4
 74
     0
 42
0.0000000001
 43
0.0000000001
 40
0.0
 40
0.0
 40
0.0
 40
0.0
 40
1.0
 40
1.0
 40
1.0
 40
1.0
 10
-6.5598
 20
59.0585
 30
0.0
 10
-6.7556
 20
58.9739
 30
0.0
 10
-6.9423
 20
58.86960000000001
 30
0.0
 10
-7.117
 20
58.7472
 30
0.0
  0
SPLINE
  5
DC
330
1F
100
AcDbEntity
  8
LC-012-007-KH--0
370
    13
100
AcDbSpline
210
0.0
220
0.0
230
1.0
 70
    24
 71
     3
 72
     8
 73
     4
 74
     0
 42
0.0000000001
 43
0.0000000001
 40
0.0
 40
0.0
 40
0.0
 40
0.0
 40
1.0
 40
1.0
 40
1.0
 40
1.0
 10
-12.0598
 20
51.2472
 30
0.0
 10
-12.0598
 20
51.2472
 30
0.0
 10
-12.0598
 20
56.9972
 30
0.0
 10
-12.0598
 20
56.9972
 30
0.0
  0
SPLINE
  5
DD
330
1F
100
AcDbEntity
  8
LC-012-007-KH--0
370
    13
100
AcDbSpline
210
0.0
220
0.0
230
1.0
 70
    24
 71
     3
 72
     8
 73
     4
 74
     0
 42
0.0000000001
 43
0.0000000001
 40
0.0
 40
0.0
 40
0.0
 40
0.0
 40
1.0
 40
1.0
 40
1.0
 40
1.0
 10
-12.0598
 20
58.7472
 30
0.0
 10
-12.0598
 20
58.7472
 30
0.0
 10
-12.0598
 20
59.66220000000001
 30
0.0
 10
-12.0598
 20
59.66220000000001
 30
0.0
  0
SPLINE
  5
DE
330
1F
100
AcDbEntity
  8
LC-012-007-KH--0
370
    13
100
AcDbSpline
210
0.0
220
0.0
230
1.0
 70
     8
 71
     3
 72
     8
 73
     4
 74
     0
 42
0.0000000001
 43
0.0000000001
 40
0.0
 40
0.0
 40
0.0
 40
0.0
 40
1.0
 40
1.0
 40
1.0
 40
1.0
 10
-5.5598
 20
54.0821
 30
0.0
 10
-5.4768
 20
54.0722
 30
0.0
 10
-5.3933
 20
54.0672
 30
0.0
 10
-5.3098
 20
54.0672
 30
0.0
  0
SPLINE
  5
DF
330
1F
100
AcDbEntity
  8
LC-012-007-KH--0
370
    13
100
AcDbSpline
210
0.0
220
0.0
230
1.0
 70
     8
 71
     3
 72
    12
 73
     8
 74
     0
 42
0.0000000001
 43
0.0000000001
 40
0.0
 40
0.0
 40
0.0
 40
0.0
 40
0.5
 40
0.5
 40
0.5
 40
0.5
 40
1.0
 40
1.0
 40
1.0
 40
1.0
 10
-5.3098
 20
54.0672
 30
0.0
 10
-4.15
 20
54.0672
 30
0.0
 10
-3.2098
 20
55.0074
 30
0.0
 10
-3.2098
 20
56.1672
 30
0.0
 10
-3.2098
 20
56.1672
 30
0.0
 10
-3.2098
 20
57.32700000000001
 30
0.0
 10
-4.149900000000001
 20
58.2672
 30
0.0
 10
-5.3097
 20
58.2672
 30
0.0
  0
SPLINE
  5
E0
330
1F
100
AcDbEntity
  8
LC-012-007-KH--0
370
    13
100
AcDbSpline
210
0.0
220
0.0
230
1.0
 70
     8
 71
     3
 72
    12
 73
     8
 74
     0
 42
0.0000000001
 43
0.0000000001
 40
0.0
 40
0.0
 40
0.0
 40
0.0
 40
0.5
 40
0.5
 40
0.5
 40
0.5
 40
1.0
 40
1.0
 40
1.0
 40
1.0
 10
-1.8098
 20
56.1672
 30
0.0
 10
-1.8098
 20
57.31910000000001
 30
0.0
 10
-2.3765
 20
58.39720000000001
 30
0.0
 10
-3.3254
 20
59.0503
 30
0.0
 10
-3.3254
 20
59.0503
 30
0.0
 10
-4.2743
 20
59.7034
 30
0.0
 10
-5.483800000000001
 20
59.8477
 30
0.0
 10
-6.5598
 20
59.4363
 30
0.0
  0
SPLINE
  5
E1
330
1F
100
AcDbEntity
  8
LC-012-007-KH--0
370
    13
100
AcDbSpline
210
0.0
220
0.0
230
1.0
 70
    24
 71
     3
 72
     8
 73
     4
 74
     0
 42
0.0000000001
 43
0.0000000001
 40
0.0
 40
0.0
 40
0.0
 40
0.0
 40
1.0
 40
1.0
 40
1.0
 40
1.0
 10
-1.8098
 20
56.1672
 30
0.0
 10
-1.8098
 20
56.1672
 30
0.0
 10
-1.8204
 20
55.55990000000001
 30
0.0
 10
-1.8204
 20
55.55990000000001
 30
0.0
  0
SPLINE
  5
E2
330
1F
100
AcDbEntity
  8
LC-012-007-KH--0
370
    13
100
AcDbSpline
210
0.0
220
0.0
230
1.0
 70
    24
 71
     3
 72
     8
 73
     4
 74
     0
 42
0.0000000001
 43
0.0000000001
 40
0.0
 40
0.0
 40
0.0
 40
0.0
 40
1.0
 40
1.0
 40
1.0
 40
1.0
 10
-1.8385
 20
54.5181
 30
0.0
 10
-1.8385
 20
54.5181
 30
0.0
 10
-1.8956
 20
51.2472
 30
0.0
 10
-1.8956
 20
51.2472
 30
0.0
  0
SPLINE
  5
E3
330
1F
100
AcDbEntity
  8
LC-012-007-KH--0
370
    13
100
AcDbSpline
210
0.0
220
0.0
230
1.0
 70
    24
 71
     3
 72
     8
 73
     4
 74
     0
 42
0.0000000001
 43
0.0000000001
 40
0.0
 40
0.0
 40
0.0
 40
0.0
 40
1.0
 40
1.0
 40
1.0
 40
1.0
 10
-5.0598
 20
65.04220000000001
 30
0.0
 10
-5.0598
 20
65.04220000000001
 30
0.0
 10
-5.0598
 20
59.6582
 30
0.0
 10
-5.0598
 20
59.6582
 30
0.0
  0
SPLINE
  5
E4
330
1F
100
AcDbEntity
  8
LC-012-007-KH--0
370
    13
100
AcDbSpline
210
0.0
220
0.0
230
1.0
 70
    24
 71
     3
 72
     8
 73
     4
 74
     0
 42
0.0000000001
 43
0.0000000001
 40
0.0
 40
0.0
 40
0.0
 40
0.0
 40
1.0
 40
1.0
 40
1.0
 40
1.0
 10
-1.8098
 20
63.5422
 30
0.0
 10
-1.8098
 20
63.5422
 30
0.0
 10
-0.0598
 20
63.5422
 30
0.0
 10
-0.0598
 20
63.5422
 30
0.0
  0
SPLINE
  5
E5
330
1F
100
AcDbEntity
  8
LC-012-007-KH--0
370
    13
100
AcDbSpline
210
0.0
220
0.0
230
1.0
 70
    24
 71
     3
 72
     8
 73
     4
 74
     0
 42
0.0000000001
 43
0.0000000001
 40
0.0
 40
0.0
 40
0.0
 40
0.0
 40
1.0
 40
1.0
 40
1.0
 40
1.0
 10
-1.8098
 20
56.1672
 30
0.0
 10
-1.8098
 20
56.1672
 30
0.0
 10
-1.8098
 20
63.5422
 30
0.0
 10
-1.8098
 20
63.5422
 30
0.0
  0
SPLINE
  5
E6
330
1F
100
AcDbEntity
  8
LC-012-007-KH--0
370
    13
100
AcDbSpline
210
0.0
220
0.0
230
1.0
 70
    24
 71
     3
 72
     8
 73
     4
 74
     0
 42
0.0000000001
 43
0.0000000001
 40
0.0
 40
0.0
 40
0.0
 40
0.0
 40
1.0
 40
1.0
 40
1.0
 40
1.0
 10
-0.0598
 20
63.5422
 30
0.0
 10
-0.0598
 20
63.5422
 30
0.0
 10
-0.0598
 20
65.04220000000001
 30
0.0
 10
-0.0598
 20
65.04220000000001
 30
0.0
  0
SPLINE
  5
E7
330
1F
100
AcDbEntity
  8
LC-012-007-KH--0
370
    13
100
AcDbSpline
210
0.0
220
0.0
230
1.0
 70
    24
 71
     3
 72
     8
 73
     4
 74
     0
 42
0.0000000001
 43
0.0000000001
 40
0.0
 40
0.0
 40
0.0
 40
0.0
 40
1.0
 40
1.0
 40
1.0
 40
1.0
 10
-0.0598
 20
65.04220000000001
 30
0.0
 10
-0.0598
 20
65.04220000000001
 30
0.0
 10
-5.0598
 20
65.04220000000001
 30
0.0
 10
-5.0598
 20
65.04220000000001
 30
0.0
  0
SPLINE
  5
E8
330
1F
100
AcDbEntity
  8
LC-012-007-KH--0
370
    13
100
AcDbSpline
210
0.0
220
0.0
230
1.0
 70
    24
 71
     3
 72
     8
 73
     4
 74
     0
 42
0.0000000001
 43
0.0000000001
 40
0.0
 40
0.0
 40
0.0
 40
0.0
 40
1.0
 40
1.0
 40
1.0
 40
1.0
 10
-0.6413
 20
40.9299
 30
0.0
 10
-0.6413
 20
40.9299
 30
0.0
 10
-0.6413
 20
38.7088
 30
0.0
 10
-0.6413
 20
38.7088
 30
0.0
  0
SPLINE
  5
E9
330
1F
100
AcDbEntity
  8
LC-012-007-KH--0
100
AcDbSpline
210
0.0
220
0.0
230
1.0
 70
    27
 71
     3
 72
    12
 73
     8
 74
     0
 42
0.0000000001
 43
0.0000000001
 40
0.0
 40
0.0
 40
0.0
 40
0.0
 40
0.5
 40
0.5
 40
0.5
 40
0.5
 40
1.0
 40
1.0
 40
1.0
 40
1.0
 10
-28.4471
 20
42.6222
 30
0.0
 10
-28.4471
 20
42.6222
 30
0.0
 10
-27.5471
 20
36.6222
 30
0.0
 10
-27.5471
 20
36.6222
 30
0.0
 10
-27.5471
 20
36.6222
 30
0.0
 10
-27.5471
 20
36.6222
 30
0.0
 10
-28.4471
 20
42.6222
 30
0.0
 10
-28.4471
 20
42.6222
 30
0.0
  0
SPLINE
  5
EA
330
1F
100
AcDbEntity
  8
LC-012-007-KH--0
100
AcDbSpline
210
0.0
220
0.0
230
1.0
 70
     8
 71
     3
 72
    12
 73
     8
 74
     0
 42
0.0000000001
 43
0.0000000001
 40
0.0
 40
0.0
 40
0.0
 40
0.0
 40
0.5
 40
0.5
 40
0.5
 40
0.5
 40
1.0
 40
1.0
 40
1.0
 40
1.0
 10
-27.5471
 20
36.6222
 30
0.0
 10
-27.5471
 20
36.6222
 30
0.0
 10
-29.3471
 20
36.6222
 30
0.0
 10
-29.3471
 20
36.6222
 30
0.0
 10
-29.3471
 20
36.6222
 30
0.0
 10
-29.3471
 20
36.6222
 30
0.0
 10
-28.4471
 20
42.6222
 30
0.0
 10
-28.4471
 20
42.6222
 30
0.0
  0
SPLINE
  5
EB
330
1F
100
AcDbEntity
  8
LC-012-007-KH--0
370
     5
100
AcDbSpline
210
0.0
220
0.0
230
1.0
 70
    24
 71
     3
 72
     8
 73
     4
 74
     0
 42
0.0000000001
 43
0.0000000001
 40
0.0
 40
0.0
 40
0.0
 40
0.0
 40
1.0
 40
1.0
 40
1.0
 40
1.0
 10
-28.4471
 20
42.6222
 30
0.0
 10
-28.4471
 20
42.6222
 30
0.0
 10
-27.5471
 20
36.6222
 30
0.0
 10
-27.5471
 20
36.6222
 30
0.0
  0
SPLINE
  5
EC
330
1F
100
AcDbEntity
  8
LC-012-007-KH--0
370
     5
100
AcDbSpline
210
0.0
220
0.0
230
1.0
 70
     8
 71
     3
 72
    12
 73
     8
 74
     0
 42
0.0000000001
 43
0.0000000001
 40
0.0
 40
0.0
 40
0.0
 40
0.0
 40
0.5
 40
0.5
 40
0.5
 40
0.5
 40
1.0
 40
1.0
 40
1.0
 40
1.0
 10
-27.5471
 20
36.6222
 30
0.0
 10
-27.5471
 20
36.6222
 30
0.0
 10
-29.3471
 20
36.6222
 30
0.0
 10
-29.3471
 20
36.6222
 30
0.0
 10
-29.3471
 20
36.6222
 30
0.0
 10
-29.3471
 20
36.6222
 30
0.0
 10
-28.4471
 20
42.6222
 30
0.0
 10
-28.4471
 20
42.6222
 30
0.0
  0
SPLINE
  5
ED
330
1F
100
AcDbEntity
  8
LC-012-007-KH--0
100
AcDbSpline
210
0.0
220
0.0
230
1.0
 70
    27
 71
     3
 72
    12
 73
     8
 74
     0
 42
0.0000000001
 43
0.0000000001
 40
0.0
 40
0.0
 40
0.0
 40
0.0
 40
0.5
 40
0.5
 40
0.5
 40
0.5
 40
1.0
 40
1.0
 40
1.0
 40
1.0
 10
-28.4471
 20
-16.1278
 30
0.0
 10
-28.4471
 20
-16.1278
 30
0.0
 10
-29.3471
 20
-10.1278
 30
0.0
 10
-29.3471
 20
-10.1278
 30
0.0
 10
-29.3471
 20
-10.1278
 30
0.0
 10
-29.3471
 20
-10.1278
 30
0.0
 10
-28.4471
 20
-16.1278
 30
0.0
 10
-28.4471
 20
-16.1278
 30
0.0
  0
SPLINE
  5
EE
330
1F
100
AcDbEntity
  8
LC-012-007-KH--0
100
AcDbSpline
210
0.0
220
0.0
230
1.0
 70
     8
 71
     3
 72
    12
 73
     8
 74
     0
 42
0.0000000001
 43
0.0000000001
 40
0.0
 40
0.0
 40
0.0
 40
0.0
 40
0.5
 40
0.5
 40
0.5
 40
0.5
 40
1.0
 40
1.0
 40
1.0
 40
1.0
 10
-29.3471
 20
-10.1278
 30
0.0
 10
-29.3471
 20
-10.1278
 30
0.0
 10
-27.5471
 20
-10.1278
 30
0.0
 10
-27.5471
 20
-10.1278
 30
0.0
 10
-27.5471
 20
-10.1278
 30
0.0
 10
-27.5471
 20
-10.1278
 30
0.0
 10
-28.4471
 20
-16.1278
 30
0.0
 10
-28.4471
 20
-16.1278
 30
0.0
  0
SPLINE
  5
EF
330
1F
100
AcDbEntity
  8
LC-012-007-KH--0
370
     5
100
AcDbSpline
210
0.0
220
0.0
230
1.0
 70
    24
 71
     3
 72
     8
 73
     4
 74
     0
 42
0.0000000001
 43
0.0000000001
 40
0.0
 40
0.0
 40
0.0
 40
0.0
 40
1.0
 40
1.0
 40
1.0
 40
1.0
 10
-28.4471
 20
-16.1278
 30
0.0
 10
-28.4471
 20
-16.1278
 30
0.0
 10
-29.3471
 20
-10.1278
 30
0.0
 10
-29.3471
 20
-10.1278
 30
0.0
  0
SPLINE
  5
F0
330
1F
100
AcDbEntity
  8
LC-012-007-KH--0
370
     5
100
AcDbSpline
210
0.0
220
0.0
230
1.0
 70
     8
 71
     3
 72
    12
 73
     8
 74
     0
 42
0.0000000001
 43
0.0000000001
 40
0.0
 40
0.0
 40
0.0
 40
0.0
 40
0.5
 40
0.5
 40
0.5
 40
0.5
 40
1.0
 40
1.0
 40
1.0
 40
1.0
 10
-29.3471
 20
-10.1278
 30
0.0
 10
-29.3471
 20
-10.1278
 30
0.0
 10
-27.5471
 20
-10.1278
 30
0.0
 10
-27.5471
 20
-10.1278
 30
0.0
 10
-27.5471
 20
-10.1278
 30
0.0
 10
-27.5471
 20
-10.1278
 30
0.0
 10
-28.4471
 20
-16.1278
 30
0.0
 10
-28.4471
 20
-16.1278
 30
0.0
  0
SPLINE
  5
F1
330
1F
100
AcDbEntity
  8
LC-012-007-KH--0
370
     5
100
AcDbSpline
210
0.0
220
0.0
230
1.0
 70
    24
 71
     3
 72
     8
 73
     4
 74
     0
 42
0.0000000001
 43
0.0000000001
 40
0.0
 40
0.0
 40
0.0
 40
0.0
 40
1.0
 40
1.0
 40
1.0
 40
1.0
 10
-15.0598
 20
42.6222
 30
0.0
 10
-15.0598
 20
42.6222
 30
0.0
 10
-29.4471
 20
42.6222
 30
0.0
 10
-29.4471
 20
42.6222
 30
0.0
  0
SPLINE
  5
F2
330
1F
100
AcDbEntity
  8
LC-012-007-KH--0
370
     5
100
AcDbSpline
210
0.0
220
0.0
230
1.0
 70
    24
 71
     3
 72
     8
 73
     4
 74
     0
 42
0.0000000001
 43
0.0000000001
 40
0.0
 40
0.0
 40
0.0
 40
0.0
 40
1.0
 40
1.0
 40
1.0
 40
1.0
 10
-15.0598
 20
-16.1278
 30
0.0
 10
-15.0598
 20
-16.1278
 30
0.0
 10
-29.4471
 20
-16.1278
 30
0.0
 10
-29.4471
 20
-16.1278
 30
0.0
  0
SPLINE
  5
F3
330
1F
100
AcDbEntity
  8
LC-012-007-KH--0
370
     5
100
AcDbSpline
210
0.0
220
0.0
230
1.0
 70
    24
 71
     3
 72
     8
 73
     4
 74
     0
 42
0.0000000001
 43
0.0000000001
 40
0.0
 40
0.0
 40
0.0
 40
0.0
 40
1.0
 40
1.0
 40
1.0
 40
1.0
 10
-28.4471
 20
42.6222
 30
0.0
 10
-28.4471
 20
42.6222
 30
0.0
 10
-28.4471
 20
-16.1278
 30
0.0
 10
-28.4471
 20
-16.1278
 30
0.0
  0
SPLINE
  5
F4
330
1F
100
AcDbEntity
  8
LC-012-007-KH--0
370
     5
100
AcDbSpline
210
0.0
220
0.0
230
1.0
 70
    24
 71
     3
 72
     8
 73
     4
 74
     0
 42
0.0000000001
 43
0.0000000001
 40
0.0
 40
0.0
 40
0.0
 40
0.0
 40
1.0
 40
1.0
 40
1.0
 40
1.0
 10
-5.3098
 20
56.1672
 30
0.0
 10
-5.3098
 20
56.1672
 30
0.0
 10
-5.3098
 20
57.4172
 30
0.0
 10
-5.3098
 20
57.4172
 30
0.0
  0
SPLINE
  5
F5
330
1F
100
AcDbEntity
  8
LC-012-007-KH--0
370
     5
100
AcDbSpline
210
0.0
220
0.0
230
1.0
 70
    24
 71
     3
 72
     8
 73
     4
 74
     0
 42
0.0000000001
 43
0.0000000001
 40
0.0
 40
0.0
 40
0.0
 40
0.0
 40
1.0
 40
1.0
 40
1.0
 40
1.0
 10
-5.3098
 20
56.1672
 30
0.0
 10
-5.3098
 20
56.1672
 30
0.0
 10
-6.5598
 20
56.1672
 30
0.0
 10
-6.5598
 20
56.1672
 30
0.0
  0
SPLINE
  5
F6
330
1F
100
AcDbEntity
  8
LC-012-007-KH--0
370
     5
100
AcDbSpline
210
0.0
220
0.0
230
1.0
 70
    24
 71
     3
 72
     8
 73
     4
 74
     0
 42
0.0000000001
 43
0.0000000001
 40
0.0
 40
0.0
 40
0.0
 40
0.0
 40
1.0
 40
1.0
 40
1.0
 40
1.0
 10
-5.3098
 20
56.1672
 30
0.0
 10
-5.3098
 20
56.1672
 30
0.0
 10
-5.3098
 20
54.9172
 30
0.0
 10
-5.3098
 20
54.9172
 30
0.0
  0
SPLINE
  5
F7
330
1F
100
AcDbEntity
  8
LC-012-007-KH--0
370
     5
100
AcDbSpline
210
0.0
220
0.0
230
1.0
 70
    24
 71
     3
 72
     8
 73
     4
 74
     0
 42
0.0000000001
 43
0.0000000001
 40
0.0
 40
0.0
 40
0.0
 40
0.0
 40
1.0
 40
1.0
 40
1.0
 40
1.0
 10
-5.3098
 20
56.1672
 30
0.0
 10
-5.3098
 20
56.1672
 30
0.0
 10
-4.0598
 20
56.1672
 30
0.0
 10
-4.0598
 20
56.1672
 30
0.0
  0
SPLINE
  5
F8
330
1F
100
AcDbEntity
  8
LC-012-007-KH--0
370
     5
100
AcDbSpline
210
0.0
220
0.0
230
1.0
 70
    24
 71
     3
 72
     8
 73
     4
 74
     0
 42
0.0000000001
 43
0.0000000001
 40
0.0
 40
0.0
 40
0.0
 40
0.0
 40
1.0
 40
1.0
 40
1.0
 40
1.0
 10
-5.3098
 20
58.6672
 30
0.0
 10
-5.3098
 20
58.6672
 30
0.0
 10
-5.3098
 20
59.4172
 30
0.0
 10
-5.3098
 20
59.4172
 30
0.0
  0
SPLINE
  5
F9
330
1F
100
AcDbEntity
  8
LC-012-007-KH--0
370
     5
100
AcDbSpline
210
0.0
220
0.0
230
1.0
 70
    24
 71
     3
 72
     8
 73
     4
 74
     0
 42
0.0000000001
 43
0.0000000001
 40
0.0
 40
0.0
 40
0.0
 40
0.0
 40
1.0
 40
1.0
 40
1.0
 40
1.0
 10
-7.8098
 20
56.1672
 30
0.0
 10
-7.8098
 20
56.1672
 30
0.0
 10
-8.559800000000001
 20
56.1672
 30
0.0
 10
-8.559800000000001
 20
56.1672
 30
0.0
  0
SPLINE
  5
FA
330
1F
100
AcDbEntity
  8
LC-012-007-KH--0
370
     5
100
AcDbSpline
210
0.0
220
0.0
230
1.0
 70
    24
 71
     3
 72
     8
 73
     4
 74
     0
 42
0.0000000001
 43
0.0000000001
 40
0.0
 40
0.0
 40
0.0
 40
0.0
 40
1.0
 40
1.0
 40
1.0
 40
1.0
 10
-5.3098
 20
53.6672
 30
0.0
 10
-5.3098
 20
53.6672
 30
0.0
 10
-5.3098
 20
52.9172
 30
0.0
 10
-5.3098
 20
52.9172
 30
0.0
  0
SPLINE
  5
FB
330
1F
100
AcDbEntity
  8
LC-012-007-KH--0
370
     5
100
AcDbSpline
210
0.0
220
0.0
230
1.0
 70
    24
 71
     3
 72
     8
 73
     4
 74
     0
 42
0.0000000001
 43
0.0000000001
 40
0.0
 40
0.0
 40
0.0
 40
0.0
 40
1.0
 40
1.0
 40
1.0
 40
1.0
 10
-2.8098
 20
56.1672
 30
0.0
 10
-2.8098
 20
56.1672
 30
0.0
 10
-2.0598
 20
56.1672
 30
0.0
 10
-2.0598
 20
56.1672
 30
0.0
  0
SPLINE
  5
FC
330
1F
100
AcDbEntity
  8
LC-012-007-KH--0
  6
New Line1
370
     5
100
AcDbSpline
210
0.0
220
0.0
230
1.0
 70
    24
 71
     3
 72
     8
 73
     4
 74
     0
 42
0.0000000001
 43
0.0000000001
 40
0.0
 40
0.0
 40
0.0
 40
0.0
 40
1.0
 40
1.0
 40
1.0
 40
1.0
 10
-16.0598
 20
13.2472
 30
0.0
 10
-16.0598
 20
13.2472
 30
0.0
 10
-6.2249
 20
13.2472
 30
0.0
 10
-6.2249
 20
13.2472
 30
0.0
  0
ENDSEC
  0
SECTION
  2
OBJECTS
  0
DICTIONARY
  5
C
330
0
100
AcDbDictionary
281
     1
  3
ACAD_GROUP
350
D
  3
ACAD_LAYOUT
350
1A
  3
ACAD_MLINESTYLE
350
17
  3
ACAD_PLOTSETTINGS
350
19
  3
ACAD_PLOTSTYLENAME
350
E
  0
DICTIONARY
  5
D
102
{ACAD_REACTORS
330
C
102
}
330
C
100
AcDbDictionary
281
     1
  0
DICTIONARY
  5
1A
102
{ACAD_REACTORS
330
C
102
}
330
C
100
AcDbDictionary
281
     1
  3
Layout1
350
1E
  3
Layout2
350
26
  3
Model
350
22
  0
DICTIONARY
  5
17
102
{ACAD_REACTORS
330
C
102
}
330
C
100
AcDbDictionary
281
     1
  3
Standard
350
18
  0
DICTIONARY
  5
19
102
{ACAD_REACTORS
330
C
102
}
330
C
100
AcDbDictionary
281
     1
  0
ACDBDICTIONARYWDFLT
  5
E
102
{ACAD_REACTORS
330
C
102
}
330
C
100
AcDbDictionary
281
     1
  3
Normal
350
F
100
AcDbDictionaryWithDefault
340
F
  0
LAYOUT
  5
1E
102
{ACAD_REACTORS
330
1A
102
}
330
1A
100
AcDbPlotSettings
  1

  2

  4

  6

 40
0.0
 41
0.0
 42
0.0
 43
0.0
 44
0.0
 45
0.0
 46
0.0
 47
0.0
 48
0.0
 49
0.0
140
0.0
141
0.0
142
1.0
143
1.0
 70
   688
 72
     0
 73
     0
 74
     5
  7

 75
    16
 76
     0
 77
     2
 78
   300
147
1.0
148
0.0
149
0.0
100
AcDbLayout
  1
Layout1
 70
     1
 71
     1
 10
0.0
 20
0.0
 11
12.0
 21
9.0
 12
0.0
 22
0.0
 32
0.0
 14
1.000000000000000E+20
 24
1.000000000000000E+20
 34
1.000000000000000E+20
 15
-1.000000000000000E+20
 25
-1.000000000000000E+20
 35
-1.000000000000000E+20
146
0.0
 13
0.0
 23
0.0
 33
0.0
 16
1.0
 26
0.0
 36
0.0
 17
0.0
 27
1.0
 37
0.0
 76
     0
330
1B
  0
LAYOUT
  5
26
102
{ACAD_REACTORS
330
1A
102
}
330
1A
100
AcDbPlotSettings
  1

  2

  4

  6

 40
0.0
 41
0.0
 42
0.0
 43
0.0
 44
0.0
 45
0.0
 46
0.0
 47
0.0
 48
0.0
 49
0.0
140
0.0
141
0.0
142
1.0
143
1.0
 70
   688
 72
     0
 73
     0
 74
     5
  7

 75
    16
 76
     0
 77
     2
 78
   300
147
1.0
148
0.0
149
0.0
100
AcDbLayout
  1
Layout2
 70
     1
 71
     2
 10
0.0
 20
0.0
 11
0.0
 21
0.0
 12
0.0
 22
0.0
 32
0.0
 14
0.0
 24
0.0
 34
0.0
 15
0.0
 25
0.0
 35
0.0
146
0.0
 13
0.0
 23
0.0
 33
0.0
 16
1.0
 26
0.0
 36
0.0
 17
0.0
 27
1.0
 37
0.0
 76
     0
330
23
  0
LAYOUT
  5
22
102
{ACAD_REACTORS
330
1A
102
}
330
1A
100
AcDbPlotSettings
  1

  2

  4

  6

 40
0.0
 41
0.0
 42
0.0
 43
0.0
 44
0.0
 45
0.0
 46
0.0
 47
0.0
 48
0.0
 49
0.0
140
0.0
141
0.0
142
1.0
143
1.0
 70
  1712
 72
     0
 73
     0
 74
     0
  7

 75
     0
 76
     0
 77
     2
 78
   300
147
1.0
148
0.0
149
0.0
100
AcDbLayout
  1
Model
 70
     1
 71
     0
 10
0.0
 20
0.0
 11
0.0
 21
0.0
 12
0.0
 22
0.0
 32
0.0
 14
-40.078
 24
-24.8278
 34
0.0
 15
6.4753
 25
65.1172
 35
0.0
146
0.0
 13
0.0
 23
0.0
 33
0.0
 16
1.0
 26
0.0
 36
0.0
 17
0.0
 27
1.0
 37
0.0
 76
     0
330
1F
  0
MLINESTYLE
  5
18
102
{ACAD_REACTORS
330
17
102
}
330
17
100
AcDbMlineStyle
  2
Standard
 70
     0
  3

 62
   256
 51
90.0
 52
90.0
 71
     2
 49
0.5
 62
   256
  6
BYLAYER
 49
-0.5
 62
   256
  6
BYLAYER
  0
ACDBPLACEHOLDER
  5
F
102
{ACAD_REACTORS
330
E
102
}
330
E
  0
ENDSEC
  0
EOF
